  0
SECTION
  2
HEADER
  9
$LIMMIN
 10
0
 20
0
  9
$LIMMAX
 10
52.5
 20
74.25
  9
$EXTMIN
 10
0
 20
69.9323431650797
  9
$EXTMAX
 10
0
 20
16
  0
ENDSEC
  0
SECTION
  2
TABLES
  0
TABLE
  2
LTYPE
 70
9
  0
LTYPE
  2
CONTINUOUS
 70
64
  3
Solid line
 72
65
 73
0
 40
0
  0
LTYPE
  2
DASHED
 70
64
  3
__ __ __ __ __ __ __ __ __
 72
65
 73
2
 40
0.75
 49
0.5
 49
-0.25
  0
LTYPE
  2
DOT
 70
64
  3
...........................
 72
65
 73
2
 40
0.25
 49
0
 49
-0.25
  0
LTYPE
  2
DASHDOT
 70
64
  3
__ . __ . __ . __ . __ . __ . 
 72
65
 73
4
 40
1
 49
0.5
 49
-0.25
 49
0
 49
-0.25
  0
ENDTAB
  0
TABLE
  2
LAYER
 70
10
  0
LAYER
  2
1
 70
0
 62
7
  6
CONTINUOUS
  0
LAYER
  2
CONNECTIONS
 70
0
 62
-7
  6
CONTINUOUS
  0
ENDTAB
  0
ENDSEC
  0
SECTION
  2
BLOCKS
  0
BLOCK
  8
0
  2
TRICON
 70
0
 10
0
 20
0
  0
POLYLINE
  8
1
 70
1
 66
1
 40
0.5
 41
0.5
  0
VERTEX
  8
1
 10
-0.25
 20
0
 42
1
  0
VERTEX
  8
1
 10
0.25
 20
0
 42
1
  0
SEQEND
  8
1
  0
ENDBLK
  8
0
  0
BLOCK
  8
0
  2
TRICONSMALL
 70
0
 10
0
 20
0
  0
POLYLINE
  8
1
 70
1
 66
1
 40
0.25
 41
0.25
  0
VERTEX
  8
1
 10
-0.125
 20
0
 42
1
  0
VERTEX
  8
1
 10
0.125
 20
0
 42
1
  0
SEQEND
  8
1
  0
ENDBLK
  8
0
  0
BLOCK
  8
0
  2
TRICONCIRCLE
 70
0
 10
0
 20
0
  0
CIRCLE
  8
1
 10
0
 20
0
 40
0.5
  0
ENDBLK
  8
0
  0
BLOCK
  8
0
  2
LCBP0
 70
0
 10
0
 20
0
  0
LINE
  8
1
 10
0
 20
-0.46875
 11
0
 21
0.46875
  0
ENDBLK
  8
0
  0
BLOCK
  8
0
  2
LCBP1
 70
0
 10
0
 20
0
  0
LINE
  8
1
 10
0
 20
-0.625
 11
0
 21
0.625
  0
ENDBLK
  8
0
  0
BLOCK
  8
0
  2
LCBP2
 70
0
 10
0
 20
0
  0
LINE
  8
1
 10
0
 20
-0.9375
 11
0
 21
0.9375
  0
ENDBLK
  8
0
  0
BLOCK
  8
0
  2
LCA1
 70
0
 10
0
 20
0
  0
SOLID
  8
1
 62
7 
 10
0
 20
0
 11
-1.4
 21
-0.275
 12
-1.4
 22
0.275
 13
-1.4
 23
0.275
  0
ENDBLK
  8
0
  0
BLOCK
  8
0
  2
LCA2
 70
0
 10
0
 20
0
  0
SOLID
  8
1
 62
7 
 10
0
 20
0
 11
-1.65
 21
-0.525
 12
-1.65
 22
0.525
 13
-1.65
 23
0.525
  0
ENDBLK
  8
0
  0
BLOCK
  8
0
  2
LCA3
 70
0
 10
0
 20
0
  0
SOLID
  8
1
 62
7 
 10
0
 20
0
 11
-2.15
 21
-1.15
 12
-2.15
 22
1.15
 13
-2.15
 23
1.15
  0
ENDBLK
  8
0
  0
BLOCK
  8
0
  2
LCA1R
 70
0
 10
0
 20
0
  0
SOLID
  8
1
 62
7 
 10
0
 20
0
 11
1.4
 21
-0.275
 12
1.4
 22
0.275
 13
1.4
 23
0.275
  0
ENDBLK
  8
0
  0
BLOCK
  8
0
  2
LCA2R
 70
0
 10
0
 20
0
  0
SOLID
  8
1
 62
7 
 10
0
 20
0
 11
1.65
 21
-0.525
 12
1.65
 22
0.525
 13
1.65
 23
0.525
  0
ENDBLK
  8
0
  0
BLOCK
  8
0
  2
LCA3R
 70
0
 10
0
 20
0
  0
SOLID
  8
1
 62
7 
 10
0
 20
0
 11
2.15
 21
-1.15
 12
2.15
 22
1.15
 13
2.15
 23
1.15
  0
ENDBLK
  8
0
  0
BLOCK
  8
0
  2
B124456_00991834
 70
0
 10
0
 20
0
  0
TEXT
  8
1
 40
2.475
 41
0.75
  1
110
  7
STANDARD
 72
2
 10
8.89851474761963
 20
1.0375
 11
8.89851474761963
 21
1.0375
  0
TEXT
  8
1
 40
2.475
 41
0.75
  1
12
  7
STANDARD
 73
2
 10
-34.9661715825399
 20
2.6
 11
-34.9661715825399
 21
2.6
  0
TEXT
  8
1
 40
2.475
 41
0.75
  1
2
  7
STANDARD
 72
2
 73
2
 10
23.7661715825399
 20
6.9
 11
23.7661715825399
 21
6.9
  0
TEXT
  8
1
 40
2.475
 41
0.75
  1
11
  7
STANDARD
 72
2
 73
2
 10
23.6661715825399
 20
-6.3
 11
23.6661715825399
 21
-6.3
  0
TEXT
  8
1
 40
2.475
 41
0.75
  1
33
  7
STANDARD
 73
2
 10
28.4661715825399
 20
-6.4
 11
28.4661715825399
 21
-6.4
  0
LINE
  8
1
 10
27.9661715825399
 20
-8
 11
27.9661715825399
 21
-4
  0
LINE
  8
1
 10
23.9661715825399
 20
4
 11
23.9661715825399
 21
8
  0
LINE
  8
1
 10
23.9661715825399
 20
-4
 11
23.9661715825399
 21
-8
  0
TEXT
  8
1
 40
2.475
 41
0.75
  1
1
  7
STANDARD
 72
2
 73
2
 10
-16.3338284174601
 20
-6.3
 11
-16.3338284174601
 21
-6.3
  0
TEXT
  8
1
 40
2.475
 41
0.75
  1
2
  7
STANDARD
 72
2
 73
2
 10
-16.1338284174601
 20
7
 11
-16.1338284174601
 21
7
  0
TEXT
  8
1
 40
2.475
 41
0.75
  1
3
  7
STANDARD
 73
2
 10
-11.4338284174601
 20
-6.3
 11
-11.4338284174601
 21
-6.3
  0
LINE
  8
1
 10
-12.0338284174601
 20
-8
 11
-12.0338284174601
 21
-4
  0
LINE
  8
1
 10
-16.0338284174601
 20
4
 11
-16.0338284174601
 21
8
  0
LINE
  8
1
 10
-16.0338284174601
 20
-4
 11
-16.0338284174601
 21
-8
  0
POLYLINE
  8
1
 66
1
  0
VERTEX
  8
1
 10
34.9661715825399
 20
-2
  0
VERTEX
  8
1
 10
34.5495049158732
 20
-4
  0
VERTEX
  8
1
 10
33.7161715825399
 20
0
  0
VERTEX
  8
1
 10
32.8828382492066
 20
-4
  0
VERTEX
  8
1
 10
32.0495049158731
 20
0
  0
VERTEX
  8
1
 10
31.2161715825399
 20
-4
  0
VERTEX
  8
1
 10
30.3828382492066
 20
0
  0
VERTEX
  8
1
 10
29.9661715825399
 20
-2
  0
SEQEND
  8
1
  0
POLYLINE
  8
1
 66
1
  0
VERTEX
  8
1
 10
-5.03382841746012
 20
-2
  0
VERTEX
  8
1
 10
-5.45049508412685
 20
-4
  0
VERTEX
  8
1
 10
-6.28382841746012
 20
0
  0
VERTEX
  8
1
 10
-7.11716175079337
 20
-4
  0
VERTEX
  8
1
 10
-7.95049508412688
 20
0
  0
VERTEX
  8
1
 10
-8.78382841746012
 20
-4
  0
VERTEX
  8
1
 10
-9.61716175079337
 20
0
  0
VERTEX
  8
1
 10
-10.0338284174601
 20
-2
  0
SEQEND
  8
1
  0
POLYLINE
  8
1
 70
1
 66
1
 40
0.5
 41
0.5
  0
VERTEX
  8
1
 10
6.59815772805808
 20
-2
 42
1
  0
VERTEX
  8
1
 10
7.09815772805808
 20
-2
 42
1
  0
SEQEND
  8
1
  0
CIRCLE
  8
1
 10
6.84815772805808
 20
-2
 40
1.5
  0
LINE
  8
1
 10
13.9661715825399
 20
-3
 11
7.96617158253988
 21
-3
  0
LINE
  8
1
 10
7.96617158253988
 20
-1
 11
13.9661715825399
 21
-1
  0
POLYLINE
  8
1
 70
1
 66
1
 40
0.5
 41
0.5
  0
VERTEX
  8
1
 10
-33.4018422719419
 20
-2
 42
1
  0
VERTEX
  8
1
 10
-32.9018422719419
 20
-2
 42
1
  0
SEQEND
  8
1
  0
CIRCLE
  8
1
 10
-33.1518422719419
 20
-2
 40
1.5
  0
LINE
  8
1
 10
-26.0338284174601
 20
-3
 11
-32.0338284174601
 21
-3
  0
LINE
  8
1
 10
-32.0338284174601
 20
-1
 11
-26.0338284174601
 21
-1
  0
LINE
  8
1
 10
15.9661715825399
 20
-4
 11
15.9661715825399
 21
-2
  0
INSERT
  8
1
  2
LCBP1
 10
15.9661715825399
 20
-2
 50
90
  0
POLYLINE
  8
1
 66
1
  0
VERTEX
  8
1
 10
13.9661715825399
 20
4
  0
VERTEX
  8
1
 10
21.9661715825399
 20
4
  0
VERTEX
  8
1
 10
21.9661715825399
 20
-4
  0
VERTEX
  8
1
 10
13.9661715825399
 20
-4
  0
VERTEX
  8
1
 10
13.9661715825399
 20
4
  0
SEQEND
  8
1
  0
LINE
  8
1
 10
15.9661715825399
 20
4
 11
19.9661715825399
 21
-4
  0
INSERT
  8
1
  2
LCA1
 10
19.9661715825399
 20
-4
 50
-63.434948822922
  0
LINE
  8
1
 10
-16.0338284174601
 20
-4
 11
-16.0338284174601
 21
-2
  0
INSERT
  8
1
  2
LCBP1
 10
-16.0338284174601
 20
-2
 50
90
  0
POLYLINE
  8
1
 66
1
  0
VERTEX
  8
1
 10
-18.0338284174601
 20
4
  0
VERTEX
  8
1
 10
-10.0338284174601
 20
4
  0
VERTEX
  8
1
 10
-10.0338284174601
 20
-4
  0
VERTEX
  8
1
 10
-18.0338284174601
 20
-4
  0
VERTEX
  8
1
 10
-18.0338284174601
 20
4
  0
SEQEND
  8
1
  0
LINE
  8
1
 10
-16.0338284174601
 20
4
 11
-12.0338284174601
 21
-4
  0
INSERT
  8
1
  2
LCA1
 10
-12.0338284174601
 20
-4
 50
-63.434948822922
  0
POLYLINE
  8
1
 66
1
  0
VERTEX
  8
1
 10
21.9661715825399
 20
4
  0
VERTEX
  8
1
 10
29.9661715825399
 20
4
  0
VERTEX
  8
1
 10
29.9661715825399
 20
-4
  0
VERTEX
  8
1
 10
21.9661715825399
 20
-4
  0
VERTEX
  8
1
 10
21.9661715825399
 20
4
  0
SEQEND
  8
1
  0
LINE
  8
1
 10
27.9661715825399
 20
-4
 11
27.9661715825399
 21
-2
  0
INSERT
  8
1
  2
LCBP1
 10
27.9661715825399
 20
-2
 50
90
  0
LINE
  8
1
 10
23.9661715825399
 20
-4
 11
23.9661715825399
 21
4
  0
INSERT
  8
1
  2
LCA1
 10
23.9661715825399
 20
4
 50
90
  0
POLYLINE
  8
1
 66
1
  0
VERTEX
  8
1
 10
-26.0338284174601
 20
4
  0
VERTEX
  8
1
 10
-18.0338284174601
 20
4
  0
VERTEX
  8
1
 10
-18.0338284174601
 20
-4
  0
VERTEX
  8
1
 10
-26.0338284174601
 20
-4
  0
VERTEX
  8
1
 10
-26.0338284174601
 20
4
  0
SEQEND
  8
1
  0
LINE
  8
1
 10
-20.0338284174601
 20
-4
 11
-20.0338284174601
 21
-2
  0
INSERT
  8
1
  2
LCBP1
 10
-20.0338284174601
 20
-2
 50
90
  0
LINE
  8
1
 10
-24.0338284174601
 20
-4
 11
-24.0338284174601
 21
4
  0
INSERT
  8
1
  2
LCA1
 10
-24.0338284174601
 20
4
 50
90
  0
CIRCLE
  8
CONNECTIONS
 10
23.9661715825399
 20
-8
 40
0
  0
CIRCLE
  8
CONNECTIONS
 10
27.9661715825399
 20
-8
 40
0
  0
CIRCLE
  8
CONNECTIONS
 10
23.9661715825399
 20
8
 40
0
  0
CIRCLE
  8
CONNECTIONS
 10
-16.0338284174601
 20
-8
 40
0
  0
CIRCLE
  8
CONNECTIONS
 10
-12.0338284174601
 20
-8
 40
0
  0
CIRCLE
  8
CONNECTIONS
 10
-16.0338284174601
 20
8
 40
0
  0
ENDBLK
  8
0
  0
ENDSEC
  0
SECTION
  2
ENTITIES
  0
INSERT
  8
1
  2
B124456_00991834
 10
34.9661715825399
 20
8
  0
ENDSEC
  0
EOF
