  0
SECTION
  2
HEADER
  9
$LIMMIN
 10
0
 20
0
  9
$LIMMAX
 10
52.5
 20
74.25
  9
$EXTMIN
 10
0
 20
86
  9
$EXTMAX
 10
0
 20
32
  0
ENDSEC
  0
SECTION
  2
TABLES
  0
TABLE
  2
LTYPE
 70
9
  0
LTYPE
  2
CONTINUOUS
 70
64
  3
Solid line
 72
65
 73
0
 40
0
  0
LTYPE
  2
DASHED
 70
64
  3
__ __ __ __ __ __ __ __ __
 72
65
 73
2
 40
0.75
 49
0.5
 49
-0.25
  0
LTYPE
  2
DOT
 70
64
  3
...........................
 72
65
 73
2
 40
0.25
 49
0
 49
-0.25
  0
LTYPE
  2
DASHDOT
 70
64
  3
__ . __ . __ . __ . __ . __ . 
 72
65
 73
4
 40
1
 49
0.5
 49
-0.25
 49
0
 49
-0.25
  0
ENDTAB
  0
TABLE
  2
LAYER
 70
10
  0
LAYER
  2
1
 70
0
 62
7
  6
CONTINUOUS
  0
LAYER
  2
CONNECTIONS
 70
0
 62
-7
  6
CONTINUOUS
  0
ENDTAB
  0
ENDSEC
  0
SECTION
  2
BLOCKS
  0
BLOCK
  8
0
  2
TRICON
 70
0
 10
0
 20
0
  0
POLYLINE
  8
1
 70
1
 66
1
 40
0.5
 41
0.5
  0
VERTEX
  8
1
 10
-0.25
 20
0
 42
1
  0
VERTEX
  8
1
 10
0.25
 20
0
 42
1
  0
SEQEND
  8
1
  0
ENDBLK
  8
0
  0
BLOCK
  8
0
  2
TRICONSMALL
 70
0
 10
0
 20
0
  0
POLYLINE
  8
1
 70
1
 66
1
 40
0.25
 41
0.25
  0
VERTEX
  8
1
 10
-0.125
 20
0
 42
1
  0
VERTEX
  8
1
 10
0.125
 20
0
 42
1
  0
SEQEND
  8
1
  0
ENDBLK
  8
0
  0
BLOCK
  8
0
  2
TRICONCIRCLE
 70
0
 10
0
 20
0
  0
CIRCLE
  8
1
 10
0
 20
0
 40
0.5
  0
ENDBLK
  8
0
  0
BLOCK
  8
0
  2
LCBP0
 70
0
 10
0
 20
0
  0
LINE
  8
1
 10
0
 20
-0.46875
 11
0
 21
0.46875
  0
ENDBLK
  8
0
  0
BLOCK
  8
0
  2
LCBP1
 70
0
 10
0
 20
0
  0
LINE
  8
1
 10
0
 20
-0.625
 11
0
 21
0.625
  0
ENDBLK
  8
0
  0
BLOCK
  8
0
  2
LCBP2
 70
0
 10
0
 20
0
  0
LINE
  8
1
 10
0
 20
-0.9375
 11
0
 21
0.9375
  0
ENDBLK
  8
0
  0
BLOCK
  8
0
  2
LCA1
 70
0
 10
0
 20
0
  0
SOLID
  8
1
 62
7 
 10
0
 20
0
 11
-1.4
 21
-0.275
 12
-1.4
 22
0.275
 13
-1.4
 23
0.275
  0
ENDBLK
  8
0
  0
BLOCK
  8
0
  2
LCA2
 70
0
 10
0
 20
0
  0
SOLID
  8
1
 62
7 
 10
0
 20
0
 11
-1.65
 21
-0.525
 12
-1.65
 22
0.525
 13
-1.65
 23
0.525
  0
ENDBLK
  8
0
  0
BLOCK
  8
0
  2
LCA3
 70
0
 10
0
 20
0
  0
SOLID
  8
1
 62
7 
 10
0
 20
0
 11
-2.15
 21
-1.15
 12
-2.15
 22
1.15
 13
-2.15
 23
1.15
  0
ENDBLK
  8
0
  0
BLOCK
  8
0
  2
LCA1R
 70
0
 10
0
 20
0
  0
SOLID
  8
1
 62
7 
 10
0
 20
0
 11
1.4
 21
-0.275
 12
1.4
 22
0.275
 13
1.4
 23
0.275
  0
ENDBLK
  8
0
  0
BLOCK
  8
0
  2
LCA2R
 70
0
 10
0
 20
0
  0
SOLID
  8
1
 62
7 
 10
0
 20
0
 11
1.65
 21
-0.525
 12
1.65
 22
0.525
 13
1.65
 23
0.525
  0
ENDBLK
  8
0
  0
BLOCK
  8
0
  2
LCA3R
 70
0
 10
0
 20
0
  0
SOLID
  8
1
 62
7 
 10
0
 20
0
 11
2.15
 21
-1.15
 12
2.15
 22
1.15
 13
2.15
 23
1.15
  0
ENDBLK
  8
0
  0
BLOCK
  8
0
  2
B88416_00991808
 70
0
 10
0
 20
0
  0
POLYLINE
  8
1
 66
1
  0
VERTEX
  8
1
 10
-43
 20
12
  0
VERTEX
  8
1
 10
43
 20
12
  0
VERTEX
  8
1
 10
43
 20
-12
  0
VERTEX
  8
1
 10
-43
 20
-12
  0
VERTEX
  8
1
 10
-43
 20
12
  0
SEQEND
  8
1
  0
LINE
  8
1
  6
DOT
 10
-23
 20
-6
 11
15
 21
-6
  0
LINE
  8
1
 10
27
 20
12
 11
27
 21
8
  0
LINE
  8
1
 10
-17
 20
8
 11
-17
 21
12
  0
LINE
  8
1
 10
27
 20
0
 11
27
 21
-12
  0
LINE
  8
1
 10
11
 20
0
 11
11
 21
-12
  0
LINE
  8
1
 10
-13
 20
0
 11
-13
 21
-12
  0
LINE
  8
1
 10
-17
 20
0
 11
-17
 21
-12
  0
LINE
  8
1
 10
-29
 20
0
 11
-29
 21
-12
  0
LINE
  8
1
 10
-33
 20
0
 11
-33
 21
-12
  0
LINE
  8
1
  6
DOT
 10
31
 20
-4
 11
-9
 21
-4
  0
LINE
  8
1
  6
DOT
 10
15
 20
-6
 11
15
 21
0
  0
LINE
  8
1
  6
DOT
 10
31
 20
0
 11
31
 21
-4
  0
LINE
  8
1
  6
DOT
 10
39
 20
-2
 11
39
 21
0
  0
LINE
  8
1
  6
DOT
 10
13
 20
-2
 11
39
 21
-2
  0
LINE
  8
1
  6
DOT
 10
11
 20
0
 11
13
 21
-2
  0
LINE
  8
1
  6
DOT
 10
-5
 20
-8
 11
-5
 21
0
  0
LINE
  8
1
  6
DOT
 10
-33
 20
0
 11
-25
 21
-8
  0
LINE
  8
1
  6
DOT
 10
-25
 20
-8
 11
-5
 21
-8
  0
LINE
  8
1
  6
DOT
 10
-29
 20
0
 11
-23
 21
-6
  0
LINE
  8
1
  6
DOT
 10
-9
 20
-4
 11
-13
 21
0
  0
TEXT
  8
1
 40
2.475
 41
0.75
  1
112
  7
STANDARD
 72
2
 73
2
 10
7.03234316507975
 20
6.9
 11
7.03234316507975
 21
6.9
  0
TEXT
  8
1
 40
2.475
 41
0.75
  1
14
  7
STANDARD
 72
2
 73
2
 10
-37.0676568349203
 20
6.9
 11
-37.0676568349203
 21
6.9
  0
TEXT
  8
1
 40
2.475
 41
0.75
  1
82/84
  7
STANDARD
 10
-28.3987644971668
 20
-20.2889920828258
  0
TEXT
  8
1
 40
2.475
 41
0.75
  1
14
  7
STANDARD
 72
2
 10
-34.3
 20
-16.7625
 11
-34.3
 21
-16.7625
  0
TEXT
  8
1
 40
2.475
 41
0.75
  1
1
  7
STANDARD
 10
-16.2742387332521
 20
-16.7889920828258
  0
TEXT
  8
1
 40
2.475
 41
0.75
  1
3/5
  7
STANDARD
 10
-12
 20
-16.7625
  0
TEXT
  8
1
 40
2.475
 41
0.75
  1
12
  7
STANDARD
 72
2
 10
9.90000000000001
 20
-16.7625
 11
9.90000000000001
 21
-16.7625
  0
TEXT
  8
1
 40
2.475
 41
0.75
  1
11
  7
STANDARD
 72
2
 10
25.5
 20
-16.7625
 11
25.5
 21
-16.7625
  0
TEXT
  8
1
 40
2.475
 41
0.75
  1
2
  7
STANDARD
 72
2
 73
3
 10
25.5345652173913
 20
17.3351630434783
 11
25.5345652173913
 21
17.3351630434783
  0
TEXT
  8
1
 40
2.475
 41
0.75
  1
4
  7
STANDARD
 72
2
 73
3
 10
-18.4654347826087
 20
17.3351630434783
 11
-18.4654347826087
 21
17.3351630434783
  0
LINE
  8
1
 10
-17
 20
12
 11
-17
 21
16
  0
LINE
  8
1
 10
27
 20
16
 11
27
 21
12
  0
LINE
  8
1
 10
27
 20
-12
 11
27
 21
-16
  0
LINE
  8
1
 10
11
 20
-12
 11
11
 21
-16
  0
LINE
  8
1
 10
-13
 20
-12
 11
-13
 21
-16
  0
LINE
  8
1
 10
-17
 20
-12
 11
-17
 21
-16
  0
LINE
  8
1
 10
-29
 20
-12
 11
-29
 21
-16
  0
LINE
  8
1
 10
-33
 20
-12
 11
-33
 21
-16
  0
LINE
  8
1
 10
36
 20
2.01888587506577
 11
33
 21
2.01888587506577
  0
LINE
  8
1
 10
36
 20
2.01888587506577
 11
39
 21
0
  0
LINE
  8
1
 10
39
 20
4.01888587506577
 11
36
 21
2.01888587506577
  0
POLYLINE
  8
1
 66
1
  0
VERTEX
  8
1
 10
33
 20
4.01888587506577
  0
VERTEX
  8
1
 10
39
 20
4.01888587506577
  0
VERTEX
  8
1
 10
39
 20
0
  0
VERTEX
  8
1
 10
33
 20
0
  0
VERTEX
  8
1
 10
33
 20
4.01888587506577
  0
SEQEND
  8
1
  0
LINE
  8
1
 10
-8
 20
2.01888587506577
 11
-11
 21
2.01888587506577
  0
LINE
  8
1
 10
-8
 20
2.01888587506577
 11
-5
 21
0
  0
LINE
  8
1
 10
-5
 20
4.01888587506577
 11
-8
 21
2.01888587506577
  0
POLYLINE
  8
1
 66
1
  0
VERTEX
  8
1
 10
-11
 20
4.01888587506577
  0
VERTEX
  8
1
 10
-5
 20
4.01888587506577
  0
VERTEX
  8
1
 10
-5
 20
0
  0
VERTEX
  8
1
 10
-11
 20
0
  0
VERTEX
  8
1
 10
-11
 20
4.01888587506577
  0
SEQEND
  8
1
  0
LINE
  8
1
 10
7
 20
0
 11
9
 21
4
  0
POLYLINE
  8
1
 66
1
  0
VERTEX
  8
1
 10
5
 20
4
  0
VERTEX
  8
1
 10
11
 20
4
  0
VERTEX
  8
1
 10
11
 20
0
  0
VERTEX
  8
1
 10
5
 20
0
  0
VERTEX
  8
1
 10
5
 20
4
  0
SEQEND
  8
1
  0
LINE
  8
1
 10
-37
 20
0
 11
-35
 21
4
  0
POLYLINE
  8
1
 66
1
  0
VERTEX
  8
1
 10
-39
 20
4
  0
VERTEX
  8
1
 10
-33
 20
4
  0
VERTEX
  8
1
 10
-33
 20
0
  0
VERTEX
  8
1
 10
-39
 20
0
  0
VERTEX
  8
1
 10
-39
 20
4
  0
SEQEND
  8
1
  0
LINE
  8
1
 10
13.9999500595413
 20
2
 11
10.9999500595413
 21
0
  0
LINE
  8
1
 10
10.9999500595413
 20
4
 11
13.9999500595413
 21
2
  0
POLYLINE
  8
1
 66
1
  0
VERTEX
  8
1
 10
10.9999500595413
 20
4
  0
VERTEX
  8
1
 10
16.9999500595413
 20
4
  0
VERTEX
  8
1
 10
16.9999500595413
 20
0
  0
VERTEX
  8
1
 10
10.9999500595413
 20
0
  0
VERTEX
  8
1
 10
10.9999500595413
 20
4
  0
SEQEND
  8
1
  0
LINE
  8
1
 10
-30
 20
2
 11
-33
 21
0
  0
LINE
  8
1
 10
-33
 20
4
 11
-30
 21
2
  0
POLYLINE
  8
1
 66
1
  0
VERTEX
  8
1
 10
-33
 20
4
  0
VERTEX
  8
1
 10
-27
 20
4
  0
VERTEX
  8
1
 10
-27
 20
0
  0
VERTEX
  8
1
 10
-33
 20
0
  0
VERTEX
  8
1
 10
-33
 20
4
  0
SEQEND
  8
1
  0
LINE
  8
1
 10
7
 20
7.5
 11
11
 21
7.5
  0
LINE
  8
1
 10
7
 20
8
 11
7
 21
5
  0
LINE
  8
1
 10
7
 20
5.5
 11
11
 21
5.5
  0
LINE
  8
1
 10
11
 20
4
 11
11
 21
8
  0
LINE
  8
1
 10
-37
 20
7.5
 11
-33
 21
7.5
  0
LINE
  8
1
 10
-37
 20
8
 11
-37
 21
5
  0
LINE
  8
1
 10
-37
 20
5.5
 11
-33
 21
5.5
  0
LINE
  8
1
 10
-33
 20
4
 11
-33
 21
8
  0
LINE
  8
1
 10
27
 20
0
 11
27
 21
2
  0
INSERT
  8
1
  2
LCBP1
 10
27
 20
2
 50
90
  0
POLYLINE
  8
1
 66
1
  0
VERTEX
  8
1
 10
25
 20
8
  0
VERTEX
  8
1
 10
33
 20
8
  0
VERTEX
  8
1
 10
33
 20
0
  0
VERTEX
  8
1
 10
25
 20
0
  0
VERTEX
  8
1
 10
25
 20
8
  0
SEQEND
  8
1
  0
LINE
  8
1
 10
27
 20
8
 11
31
 21
0
  0
INSERT
  8
1
  2
LCA1
 10
31
 20
0
 50
-63.434948822922
  0
LINE
  8
1
 10
-17
 20
0
 11
-17
 21
2
  0
INSERT
  8
1
  2
LCBP1
 10
-17
 20
2
 50
90
  0
POLYLINE
  8
1
 66
1
  0
VERTEX
  8
1
 10
-19
 20
8
  0
VERTEX
  8
1
 10
-11
 20
8
  0
VERTEX
  8
1
 10
-11
 20
0
  0
VERTEX
  8
1
 10
-19
 20
0
  0
VERTEX
  8
1
 10
-19
 20
8
  0
SEQEND
  8
1
  0
LINE
  8
1
 10
-17
 20
8
 11
-13
 21
0
  0
INSERT
  8
1
  2
LCA1
 10
-13
 20
0
 50
-63.434948822922
  0
POLYLINE
  8
1
 66
1
  0
VERTEX
  8
1
 10
17
 20
8
  0
VERTEX
  8
1
 10
25
 20
8
  0
VERTEX
  8
1
 10
25
 20
0
  0
VERTEX
  8
1
 10
17
 20
0
  0
VERTEX
  8
1
 10
17
 20
8
  0
SEQEND
  8
1
  0
LINE
  8
1
 10
23
 20
0
 11
23
 21
2
  0
INSERT
  8
1
  2
LCBP1
 10
23
 20
2
 50
90
  0
LINE
  8
1
 10
19
 20
0
 11
19
 21
8
  0
INSERT
  8
1
  2
LCA1
 10
19
 20
8
 50
90
  0
POLYLINE
  8
1
 66
1
  0
VERTEX
  8
1
 10
-27
 20
8
  0
VERTEX
  8
1
 10
-19
 20
8
  0
VERTEX
  8
1
 10
-19
 20
0
  0
VERTEX
  8
1
 10
-27
 20
0
  0
VERTEX
  8
1
 10
-27
 20
8
  0
SEQEND
  8
1
  0
LINE
  8
1
 10
-21
 20
0
 11
-21
 21
2
  0
INSERT
  8
1
  2
LCBP1
 10
-21
 20
2
 50
90
  0
LINE
  8
1
 10
-25
 20
0
 11
-25
 21
8
  0
INSERT
  8
1
  2
LCA1
 10
-25
 20
8
 50
90
  0
CIRCLE
  8
CONNECTIONS
 10
-17
 20
16
 40
0
  0
CIRCLE
  8
CONNECTIONS
 10
27
 20
16
 40
0
  0
CIRCLE
  8
CONNECTIONS
 10
-33
 20
-16
 40
0
  0
CIRCLE
  8
CONNECTIONS
 10
-29
 20
-16
 40
0
  0
CIRCLE
  8
CONNECTIONS
 10
-17
 20
-16
 40
0
  0
CIRCLE
  8
CONNECTIONS
 10
-13
 20
-16
 40
0
  0
CIRCLE
  8
CONNECTIONS
 10
11
 20
-16
 40
0
  0
CIRCLE
  8
CONNECTIONS
 10
27
 20
-16
 40
0
  0
CIRCLE
  8
CONNECTIONS
 10
5
 20
2
 40
0
  0
CIRCLE
  8
CONNECTIONS
 10
-39
 20
2
 40
0
  0
ENDBLK
  8
0
  0
ENDSEC
  0
SECTION
  2
ENTITIES
  0
INSERT
  8
1
  2
B88416_00991808
 10
43
 20
16
  0
ENDSEC
  0
EOF
