  0
SECTION
  2
HEADER
  9
$LIMMIN
 10
0
 20
0
  9
$LIMMAX
 10
52.5
 20
74.25
  9
$EXTMIN
 10
0
 20
76.1983502388001
  9
$EXTMAX
 10
0
 20
30
  0
ENDSEC
  0
SECTION
  2
TABLES
  0
TABLE
  2
LTYPE
 70
9
  0
LTYPE
  2
CONTINUOUS
 70
64
  3
Solid line
 72
65
 73
0
 40
0
  0
LTYPE
  2
DASHED
 70
64
  3
__ __ __ __ __ __ __ __ __
 72
65
 73
2
 40
0.75
 49
0.5
 49
-0.25
  0
LTYPE
  2
DOT
 70
64
  3
...........................
 72
65
 73
2
 40
0.25
 49
0
 49
-0.25
  0
LTYPE
  2
DASHDOT
 70
64
  3
__ . __ . __ . __ . __ . __ . 
 72
65
 73
4
 40
1
 49
0.5
 49
-0.25
 49
0
 49
-0.25
  0
ENDTAB
  0
TABLE
  2
LAYER
 70
10
  0
LAYER
  2
1
 70
0
 62
7
  6
CONTINUOUS
  0
LAYER
  2
CONNECTIONS
 70
0
 62
-7
  6
CONTINUOUS
  0
ENDTAB
  0
ENDSEC
  0
SECTION
  2
BLOCKS
  0
BLOCK
  8
0
  2
TRICON
 70
0
 10
0
 20
0
  0
POLYLINE
  8
1
 70
1
 66
1
 40
0.5
 41
0.5
  0
VERTEX
  8
1
 10
-0.25
 20
0
 42
1
  0
VERTEX
  8
1
 10
0.25
 20
0
 42
1
  0
SEQEND
  8
1
  0
ENDBLK
  8
0
  0
BLOCK
  8
0
  2
TRICONSMALL
 70
0
 10
0
 20
0
  0
POLYLINE
  8
1
 70
1
 66
1
 40
0.25
 41
0.25
  0
VERTEX
  8
1
 10
-0.125
 20
0
 42
1
  0
VERTEX
  8
1
 10
0.125
 20
0
 42
1
  0
SEQEND
  8
1
  0
ENDBLK
  8
0
  0
BLOCK
  8
0
  2
TRICONCIRCLE
 70
0
 10
0
 20
0
  0
CIRCLE
  8
1
 10
0
 20
0
 40
0.5
  0
ENDBLK
  8
0
  0
BLOCK
  8
0
  2
LCBP0
 70
0
 10
0
 20
0
  0
LINE
  8
1
 10
0
 20
-0.46875
 11
0
 21
0.46875
  0
ENDBLK
  8
0
  0
BLOCK
  8
0
  2
LCBP1
 70
0
 10
0
 20
0
  0
LINE
  8
1
 10
0
 20
-0.625
 11
0
 21
0.625
  0
ENDBLK
  8
0
  0
BLOCK
  8
0
  2
LCBP2
 70
0
 10
0
 20
0
  0
LINE
  8
1
 10
0
 20
-0.9375
 11
0
 21
0.9375
  0
ENDBLK
  8
0
  0
BLOCK
  8
0
  2
LCA1
 70
0
 10
0
 20
0
  0
SOLID
  8
1
 62
7 
 10
0
 20
0
 11
-1.4
 21
-0.275
 12
-1.4
 22
0.275
 13
-1.4
 23
0.275
  0
ENDBLK
  8
0
  0
BLOCK
  8
0
  2
LCA2
 70
0
 10
0
 20
0
  0
SOLID
  8
1
 62
7 
 10
0
 20
0
 11
-1.65
 21
-0.525
 12
-1.65
 22
0.525
 13
-1.65
 23
0.525
  0
ENDBLK
  8
0
  0
BLOCK
  8
0
  2
LCA3
 70
0
 10
0
 20
0
  0
SOLID
  8
1
 62
7 
 10
0
 20
0
 11
-2.15
 21
-1.15
 12
-2.15
 22
1.15
 13
-2.15
 23
1.15
  0
ENDBLK
  8
0
  0
BLOCK
  8
0
  2
LCA1R
 70
0
 10
0
 20
0
  0
SOLID
  8
1
 62
7 
 10
0
 20
0
 11
1.4
 21
-0.275
 12
1.4
 22
0.275
 13
1.4
 23
0.275
  0
ENDBLK
  8
0
  0
BLOCK
  8
0
  2
LCA2R
 70
0
 10
0
 20
0
  0
SOLID
  8
1
 62
7 
 10
0
 20
0
 11
1.65
 21
-0.525
 12
1.65
 22
0.525
 13
1.65
 23
0.525
  0
ENDBLK
  8
0
  0
BLOCK
  8
0
  2
LCA3R
 70
0
 10
0
 20
0
  0
SOLID
  8
1
 62
7 
 10
0
 20
0
 11
2.15
 21
-1.15
 12
2.15
 22
1.15
 13
2.15
 23
1.15
  0
ENDBLK
  8
0
  0
BLOCK
  8
0
  2
B37534_00991803
 70
0
 10
0
 20
0
  0
POLYLINE
  8
1
 66
1
  0
VERTEX
  8
1
 10
-37.9008248011271
 20
11
  0
VERTEX
  8
1
 10
38.0991751988729
 20
11
  0
VERTEX
  8
1
 10
38.0991751988729
 20
-11
  0
VERTEX
  8
1
 10
-37.9008248011271
 20
-11
  0
VERTEX
  8
1
 10
-37.9008248011271
 20
11
  0
SEQEND
  8
1
  0
LINE
  8
1
  6
DOT
 10
34.0991751988729
 20
-3
 11
34.0991751988729
 21
-1
  0
LINE
  8
1
  6
DOT
 10
-9.90082480112711
 20
-3
 11
34.0991751988729
 21
-3
  0
LINE
  8
1
  6
DOT
 10
24.0991751988729
 20
-3
 11
24.0991751988729
 21
-1
  0
POLYLINE
  8
1
 70
1
 66
1
 40
0.6
 41
0.6
  0
VERTEX
  8
1
 10
23.7991751988729
 20
-3
 42
1
  0
VERTEX
  8
1
 10
24.3991751988729
 20
-3
 42
1
  0
SEQEND
  8
1
  0
LINE
  8
1
  6
DOT
 10
-1.90082480112711
 20
-3
 11
-1.90082480112711
 21
-1
  0
POLYLINE
  8
1
 70
1
 66
1
 40
0.6
 41
0.6
  0
VERTEX
  8
1
 10
-2.20082480112711
 20
-3
 42
1
  0
VERTEX
  8
1
 10
-1.60082480112712
 20
-3
 42
1
  0
SEQEND
  8
1
  0
LINE
  8
1
  6
DOT
 10
-11.9008248011271
 20
-1
 11
-9.90082480112711
 21
-3
  0
LINE
  8
1
  6
DOT
 10
12.0991751988729
 20
-5
 11
12.0991751988729
 21
-1
  0
LINE
  8
1
  6
DOT
 10
-19.9008248011271
 20
-5
 11
12.0991751988729
 21
-5
  0
LINE
  8
1
  6
DOT
 10
-23.9008248011271
 20
-1
 11
-19.9008248011271
 21
-5
  0
LINE
  8
1
  6
DOT
 10
8.09917519887289
 20
-7
 11
8.09917519887289
 21
-1
  0
LINE
  8
1
  6
DOT
 10
-21.9008248011271
 20
-7
 11
8.09917519887289
 21
-7
  0
LINE
  8
1
 10
-11.9008248011271
 20
-1
 11
-11.9008248011271
 21
-11
  0
LINE
  8
1
 10
-23.9008248011271
 20
-1
 11
-23.9008248011271
 21
-11
  0
LINE
  8
1
 10
-11.9008248011271
 20
7
 11
-11.9008248011271
 21
11
  0
LINE
  8
1
 10
24.0991751988729
 20
7
 11
24.0991751988729
 21
11
  0
LINE
  8
1
 10
-27.9008248011271
 20
-1
 11
-27.9008248011271
 21
-11
  0
LINE
  8
1
  6
DOT
 10
-27.9008248011271
 20
-1
 11
-21.9008248011271
 21
-7
  0
TEXT
  8
1
 40
2.475
 41
0.75
  1
12/14
  7
STANDARD
 72
2
 73
2
 10
-29.1508248011271
 20
-14.6
 11
-29.1508248011271
 21
-14.6
  0
TEXT
  8
1
 40
2.475
 41
0.75
  1
82/84
  7
STANDARD
 72
2
 73
2
 10
-12.4616013209025
 20
-14.6
 11
-12.4616013209025
 21
-14.6
  0
TEXT
  8
1
 40
2.475
 41
0.75
  1
1
  7
STANDARD
 73
2
 10
-10.7508248011271
 20
-14.6
 11
-10.7508248011271
 21
-14.6
  0
TEXT
  8
1
 40
2.475
 41
0.75
  1
4
  7
STANDARD
 72
2
 73
2
 10
-13.2508248011271
 20
13.8277674039205
 11
-13.2508248011271
 21
13.8277674039205
  0
TEXT
  8
1
 40
2.475
 41
0.75
  1
2
  7
STANDARD
 72
2
 73
2
 10
23.1491751988729
 20
13.8277674039205
 11
23.1491751988729
 21
13.8277674039205
  0
LINE
  8
1
 10
24.0991751988729
 20
11
 11
24.0991751988729
 21
15
  0
LINE
  8
1
 10
-11.9008248011271
 20
-11
 11
-11.9008248011271
 21
-15
  0
LINE
  8
1
 10
-23.9008248011271
 20
-11
 11
-23.9008248011271
 21
-15
  0
LINE
  8
1
 10
-11.9008248011271
 20
11
 11
-11.9008248011271
 21
15
  0
LINE
  8
1
 10
-27.9008248011271
 20
-11
 11
-27.9008248011271
 21
-15
  0
TEXT
  8
1
 40
2.475
 41
0.75
  1
12
  7
STANDARD
 72
2
 73
2
 10
3.24917519887289
 20
6.3
 11
3.24917519887289
 21
6.3
  0
TEXT
  8
1
 40
2.475
 41
0.75
  1
14
  7
STANDARD
 72
2
 73
2
 10
-32.4508248011271
 20
6.3
 11
-32.4508248011271
 21
6.3
  0
LINE
  8
1
 10
4.09917519887289
 20
-1
 11
6.09917519887289
 21
3
  0
POLYLINE
  8
1
 66
1
  0
VERTEX
  8
1
 10
2.09917519887289
 20
3
  0
VERTEX
  8
1
 10
8.09917519887289
 20
3
  0
VERTEX
  8
1
 10
8.09917519887289
 20
-1
  0
VERTEX
  8
1
 10
2.09917519887289
 20
-1
  0
VERTEX
  8
1
 10
2.09917519887289
 20
3
  0
SEQEND
  8
1
  0
LINE
  8
1
 10
-31.9008248011271
 20
-0.999999999999998
 11
-29.9008248011271
 21
3
  0
POLYLINE
  8
1
 66
1
  0
VERTEX
  8
1
 10
-33.9008248011271
 20
3
  0
VERTEX
  8
1
 10
-27.9008248011271
 20
3
  0
VERTEX
  8
1
 10
-27.9008248011271
 20
-0.999999999999996
  0
VERTEX
  8
1
 10
-33.9008248011271
 20
-0.999999999999996
  0
VERTEX
  8
1
 10
-33.9008248011271
 20
3
  0
SEQEND
  8
1
  0
POLYLINE
  8
1
 66
1
  0
VERTEX
  8
1
 10
28.0991751988729
 20
3.00000000000002
  0
VERTEX
  8
1
 10
34.0991751988729
 20
3.00000000000002
  0
VERTEX
  8
1
 10
34.0991751988729
 20
-0.999999999999982
  0
VERTEX
  8
1
 10
28.0991751988729
 20
-0.999999999999982
  0
VERTEX
  8
1
 10
28.0991751988729
 20
3.00000000000002
  0
SEQEND
  8
1
  0
LINE
  8
1
 10
34.086382136211
 20
2.96767221881565
 11
30.6684069170685
 21
1
  0
LINE
  8
1
 10
30.6350735837351
 20
1
 11
28.0991751988729
 21
1
  0
LINE
  8
1
 10
34.0991751988729
 20
-1
 11
30.6350735837351
 21
1
  0
POLYLINE
  8
1
 66
1
  0
VERTEX
  8
1
 10
-7.90082480112711
 20
3.00117945470324
  0
VERTEX
  8
1
 10
-1.89905561907224
 20
3.00117945470324
  0
VERTEX
  8
1
 10
-1.89905561907224
 20
-1.00000000000001
  0
VERTEX
  8
1
 10
-7.90082480112711
 20
-1.00000000000001
  0
VERTEX
  8
1
 10
-7.90082480112711
 20
3.00117945470324
  0
SEQEND
  8
1
  0
LINE
  8
1
 10
-1.95476474945896
 20
2.95091860087186
 11
-5.38185393676293
 21
0.99999999999999
  0
LINE
  8
1
 10
-5.36492641626487
 20
1
 11
-7.90082480112711
 21
1
  0
LINE
  8
1
 10
-1.90082480112711
 20
-1
 11
-5.36492641626487
 21
1
  0
LINE
  8
1
 10
4.09917519887289
 20
6.5
 11
8.09917519887289
 21
6.5
  0
LINE
  8
1
 10
4.09917519887289
 20
7
 11
4.09917519887289
 21
4
  0
LINE
  8
1
 10
4.09917519887289
 20
4.5
 11
8.09917519887289
 21
4.5
  0
LINE
  8
1
 10
8.09917519887289
 20
3
 11
8.09917519887289
 21
7
  0
LINE
  8
1
 10
-31.9008248011271
 20
6.5
 11
-27.9008248011271
 21
6.5
  0
LINE
  8
1
 10
-31.9008248011271
 20
7
 11
-31.9008248011271
 21
4
  0
LINE
  8
1
 10
-31.9008248011271
 20
4.5
 11
-27.9008248011271
 21
4.5
  0
LINE
  8
1
 10
-27.9008248011271
 20
3
 11
-27.9008248011271
 21
7
  0
POLYLINE
  8
1
 66
1
  0
VERTEX
  8
1
 10
8.09917519887289
 20
3
  0
VERTEX
  8
1
 10
12.0991751988729
 20
3
  0
VERTEX
  8
1
 10
12.0991751988729
 20
-1
  0
VERTEX
  8
1
 10
8.09917519887289
 20
-1
  0
VERTEX
  8
1
 10
8.09917519887289
 20
3
  0
SEQEND
  8
1
  0
LINE
  8
1
 10
8.09917519887289
 20
3
 11
8.09917519887289
 21
-1
  0
LINE
  8
1
 10
8.09917519887289
 20
3
 11
11.5632768140106
 21
1
  0
LINE
  8
1
 10
8.09917519887289
 20
-1
 11
11.5632768140106
 21
1
  0
POLYLINE
  8
1
 66
1
  0
VERTEX
  8
1
 10
-27.9008248011271
 20
3
  0
VERTEX
  8
1
 10
-23.9008248011271
 20
3
  0
VERTEX
  8
1
 10
-23.9008248011271
 20
-1
  0
VERTEX
  8
1
 10
-27.9008248011271
 20
-1
  0
VERTEX
  8
1
 10
-27.9008248011271
 20
3
  0
SEQEND
  8
1
  0
LINE
  8
1
 10
-27.9008248011271
 20
3
 11
-27.9008248011271
 21
-1
  0
LINE
  8
1
 10
-27.9008248011271
 20
3
 11
-24.4367231859894
 21
1
  0
LINE
  8
1
 10
-27.9008248011271
 20
-1
 11
-24.4367231859894
 21
1
  0
LINE
  8
1
 10
24.0991751988729
 20
7
 11
24.0991751988729
 21
5
  0
INSERT
  8
1
  2
LCBP1
 10
24.0991751988729
 20
5
 50
-90
  0
LINE
  8
1
 10
24.0991751988729
 20
-1
 11
24.0991751988729
 21
1
  0
INSERT
  8
1
  2
LCBP1
 10
24.0991751988729
 20
1
 50
90
  0
POLYLINE
  8
1
 66
1
  0
VERTEX
  8
1
 10
20.0991751988729
 20
7
  0
VERTEX
  8
1
 10
28.0991751988729
 20
7
  0
VERTEX
  8
1
 10
28.0991751988729
 20
-1
  0
VERTEX
  8
1
 10
20.0991751988729
 20
-1
  0
VERTEX
  8
1
 10
20.0991751988729
 20
7
  0
SEQEND
  8
1
  0
LINE
  8
1
 10
-11.9008248011271
 20
7
 11
-11.9008248011271
 21
5
  0
INSERT
  8
1
  2
LCBP1
 10
-11.9008248011271
 20
5
 50
-90
  0
LINE
  8
1
 10
-11.9008248011271
 20
-1
 11
-11.9008248011271
 21
1
  0
INSERT
  8
1
  2
LCBP1
 10
-11.9008248011271
 20
1
 50
90
  0
POLYLINE
  8
1
 66
1
  0
VERTEX
  8
1
 10
-15.9008248011271
 20
7
  0
VERTEX
  8
1
 10
-7.90082480112711
 20
7
  0
VERTEX
  8
1
 10
-7.90082480112711
 20
-1
  0
VERTEX
  8
1
 10
-15.9008248011271
 20
-1
  0
VERTEX
  8
1
 10
-15.9008248011271
 20
7
  0
SEQEND
  8
1
  0
LINE
  8
1
 10
16.0991751988729
 20
-1
 11
16.0991751988729
 21
7
  0
INSERT
  8
1
  2
LCA1
 10
16.0991751988729
 20
7
 50
90
  0
POLYLINE
  8
1
 66
1
  0
VERTEX
  8
1
 10
12.0991751988729
 20
7
  0
VERTEX
  8
1
 10
20.0991751988729
 20
7
  0
VERTEX
  8
1
 10
20.0991751988729
 20
-1
  0
VERTEX
  8
1
 10
12.0991751988729
 20
-1
  0
VERTEX
  8
1
 10
12.0991751988729
 20
7
  0
SEQEND
  8
1
  0
LINE
  8
1
 10
-19.9008248011271
 20
-1
 11
-19.9008248011271
 21
7
  0
INSERT
  8
1
  2
LCA1
 10
-19.9008248011271
 20
7
 50
90
  0
POLYLINE
  8
1
 66
1
  0
VERTEX
  8
1
 10
-23.9008248011271
 20
7
  0
VERTEX
  8
1
 10
-15.9008248011271
 20
7
  0
VERTEX
  8
1
 10
-15.9008248011271
 20
-1
  0
VERTEX
  8
1
 10
-23.9008248011271
 20
-1
  0
VERTEX
  8
1
 10
-23.9008248011271
 20
7
  0
SEQEND
  8
1
  0
CIRCLE
  8
CONNECTIONS
 10
24.0991751988729
 20
15
 40
0
  0
CIRCLE
  8
CONNECTIONS
 10
-11.9008248011271
 20
15
 40
0
  0
CIRCLE
  8
CONNECTIONS
 10
-27.9008248011271
 20
-15
 40
0
  0
CIRCLE
  8
CONNECTIONS
 10
-23.9008248011271
 20
-15
 40
0
  0
CIRCLE
  8
CONNECTIONS
 10
-11.9008248011271
 20
-15
 40
0
  0
CIRCLE
  8
CONNECTIONS
 10
2.09917519887289
 20
1
 40
0
  0
CIRCLE
  8
CONNECTIONS
 10
-33.9008248011271
 20
1
 40
0
  0
ENDBLK
  8
0
  0
ENDSEC
  0
SECTION
  2
ENTITIES
  0
INSERT
  8
1
  2
B37534_00991803
 10
38.0991751988729
 20
15
  0
ENDSEC
  0
EOF
