  0
SECTION
  2
HEADER
  9
$LIMMIN
 10
0
 20
0
  9
$LIMMAX
 10
52.5
 20
74.25
  9
$EXTMIN
 10
0
 20
76.1983502388001
  9
$EXTMAX
 10
0
 20
28.1474926253688
  0
ENDSEC
  0
SECTION
  2
TABLES
  0
TABLE
  2
LTYPE
 70
9
  0
LTYPE
  2
CONTINUOUS
 70
64
  3
Solid line
 72
65
 73
0
 40
0
  0
LTYPE
  2
DASHED
 70
64
  3
__ __ __ __ __ __ __ __ __
 72
65
 73
2
 40
0.75
 49
0.5
 49
-0.25
  0
LTYPE
  2
DOT
 70
64
  3
...........................
 72
65
 73
2
 40
0.25
 49
0
 49
-0.25
  0
LTYPE
  2
DASHDOT
 70
64
  3
__ . __ . __ . __ . __ . __ . 
 72
65
 73
4
 40
1
 49
0.5
 49
-0.25
 49
0
 49
-0.25
  0
ENDTAB
  0
TABLE
  2
LAYER
 70
10
  0
LAYER
  2
1
 70
0
 62
7
  6
CONTINUOUS
  0
LAYER
  2
CONNECTIONS
 70
0
 62
-7
  6
CONTINUOUS
  0
ENDTAB
  0
ENDSEC
  0
SECTION
  2
BLOCKS
  0
BLOCK
  8
0
  2
TRICON
 70
0
 10
0
 20
0
  0
POLYLINE
  8
1
 70
1
 66
1
 40
0.5
 41
0.5
  0
VERTEX
  8
1
 10
-0.25
 20
0
 42
1
  0
VERTEX
  8
1
 10
0.25
 20
0
 42
1
  0
SEQEND
  8
1
  0
ENDBLK
  8
0
  0
BLOCK
  8
0
  2
TRICONSMALL
 70
0
 10
0
 20
0
  0
POLYLINE
  8
1
 70
1
 66
1
 40
0.25
 41
0.25
  0
VERTEX
  8
1
 10
-0.125
 20
0
 42
1
  0
VERTEX
  8
1
 10
0.125
 20
0
 42
1
  0
SEQEND
  8
1
  0
ENDBLK
  8
0
  0
BLOCK
  8
0
  2
TRICONCIRCLE
 70
0
 10
0
 20
0
  0
CIRCLE
  8
1
 10
0
 20
0
 40
0.5
  0
ENDBLK
  8
0
  0
BLOCK
  8
0
  2
LCBP0
 70
0
 10
0
 20
0
  0
LINE
  8
1
 10
0
 20
-0.46875
 11
0
 21
0.46875
  0
ENDBLK
  8
0
  0
BLOCK
  8
0
  2
LCBP1
 70
0
 10
0
 20
0
  0
LINE
  8
1
 10
0
 20
-0.625
 11
0
 21
0.625
  0
ENDBLK
  8
0
  0
BLOCK
  8
0
  2
LCBP2
 70
0
 10
0
 20
0
  0
LINE
  8
1
 10
0
 20
-0.9375
 11
0
 21
0.9375
  0
ENDBLK
  8
0
  0
BLOCK
  8
0
  2
LCA1
 70
0
 10
0
 20
0
  0
SOLID
  8
1
 62
7 
 10
0
 20
0
 11
-1.4
 21
-0.275
 12
-1.4
 22
0.275
 13
-1.4
 23
0.275
  0
ENDBLK
  8
0
  0
BLOCK
  8
0
  2
LCA2
 70
0
 10
0
 20
0
  0
SOLID
  8
1
 62
7 
 10
0
 20
0
 11
-1.65
 21
-0.525
 12
-1.65
 22
0.525
 13
-1.65
 23
0.525
  0
ENDBLK
  8
0
  0
BLOCK
  8
0
  2
LCA3
 70
0
 10
0
 20
0
  0
SOLID
  8
1
 62
7 
 10
0
 20
0
 11
-2.15
 21
-1.15
 12
-2.15
 22
1.15
 13
-2.15
 23
1.15
  0
ENDBLK
  8
0
  0
BLOCK
  8
0
  2
LCA1R
 70
0
 10
0
 20
0
  0
SOLID
  8
1
 62
7 
 10
0
 20
0
 11
1.4
 21
-0.275
 12
1.4
 22
0.275
 13
1.4
 23
0.275
  0
ENDBLK
  8
0
  0
BLOCK
  8
0
  2
LCA2R
 70
0
 10
0
 20
0
  0
SOLID
  8
1
 62
7 
 10
0
 20
0
 11
1.65
 21
-0.525
 12
1.65
 22
0.525
 13
1.65
 23
0.525
  0
ENDBLK
  8
0
  0
BLOCK
  8
0
  2
LCA3R
 70
0
 10
0
 20
0
  0
SOLID
  8
1
 62
7 
 10
0
 20
0
 11
2.15
 21
-1.15
 12
2.15
 22
1.15
 13
2.15
 23
1.15
  0
ENDBLK
  8
0
  0
BLOCK
  8
0
  2
B37341_00991801
 70
0
 10
0
 20
0
  0
POLYLINE
  8
1
 66
1
  0
VERTEX
  8
1
 10
-37.9008248011271
 20
9.92625368731562
  0
VERTEX
  8
1
 10
38.0991751988729
 20
9.92625368731562
  0
VERTEX
  8
1
 10
38.0991751988729
 20
-10.0737463126844
  0
VERTEX
  8
1
 10
-37.9008248011271
 20
-10.0737463126844
  0
VERTEX
  8
1
 10
-37.9008248011271
 20
9.92625368731562
  0
SEQEND
  8
1
  0
LINE
  8
1
  6
DOT
 10
34.0991751988729
 20
-4.07374631268438
 11
34.0991751988729
 21
-2.07374631268438
  0
LINE
  8
1
  6
DOT
 10
10.0991751988729
 20
-4.07374631268438
 11
34.0991751988729
 21
-4.07374631268438
  0
LINE
  8
1
 10
24.0991751988729
 20
5.92625368731562
 11
24.0991751988729
 21
9.92625368731562
  0
LINE
  8
1
 10
24.0991751988729
 20
-2.07374631268438
 11
24.0991751988729
 21
-10.0737463126844
  0
LINE
  8
1
  6
DOT
 10
12.0991751988729
 20
-6.07374631268438
 11
12.0991751988729
 21
-2.07374631268438
  0
LINE
  8
1
  6
DOT
 10
-19.9008248011271
 20
-6.07374631268438
 11
12.0991751988729
 21
-6.07374631268438
  0
LINE
  8
1
  6
DOT
 10
-1.90082480112711
 20
-4.07374631268438
 11
-1.90082480112711
 21
-2.07374631268438
  0
LINE
  8
1
  6
DOT
 10
-25.9008248011271
 20
-4.07374631268438
 11
-1.90082480112711
 21
-4.07374631268438
  0
LINE
  8
1
  6
DOT
 10
8.09917519887289
 20
-2.07374631268438
 11
10.0991751988729
 21
-4.07374631268438
  0
LINE
  8
1
 10
8.09917519887289
 20
-2.07374631268438
 11
8.09917519887289
 21
-10.0737463126844
  0
LINE
  8
1
 10
-11.9008248011271
 20
-2.07374631268438
 11
-11.9008248011271
 21
-10.0737463126844
  0
LINE
  8
1
 10
-11.9008248011271
 20
5.92625368731562
 11
-11.9008248011271
 21
9.92625368731562
  0
LINE
  8
1
  6
DOT
 10
-23.9008248011271
 20
-2.07374631268438
 11
-19.9008248011271
 21
-6.07374631268438
  0
LINE
  8
1
 10
-23.9008248011271
 20
-2.07374631268438
 11
-23.9008248011271
 21
-10.0737463126844
  0
LINE
  8
1
 10
-27.9008248011271
 20
-2.07374631268438
 11
-27.9008248011271
 21
-10.0737463126844
  0
LINE
  8
1
  6
DOT
 10
-27.9008248011271
 20
-2.07374631268438
 11
-25.9008248011271
 21
-4.07374631268438
  0
TEXT
  8
1
 40
2.475
 41
0.75
  1
4
  7
STANDARD
 72
2
 73
2
 10
-13.2310469964876
 20
12.4390685648078
 11
-13.2310469964876
 21
12.4390685648078
  0
TEXT
  8
1
 40
2.475
 41
0.75
  1
2
  7
STANDARD
 72
2
 73
2
 10
22.7689530035124
 20
12.4390685648078
 11
22.7689530035124
 21
12.4390685648078
  0
TEXT
  8
1
 40
2.475
 41
0.75
  1
82/84
  7
STANDARD
 10
-23.4935297449254
 20
-14.3073679319614
  0
TEXT
  8
1
 40
2.475
 41
0.75
  1
1
  7
STANDARD
 10
-10.5695272882603
 20
-14.3073679319614
  0
TEXT
  8
1
 40
2.475
 41
0.75
  1
11
  7
STANDARD
 72
2
 10
22.6956937352992
 20
-14.3073679319614
 11
22.6956937352992
 21
-14.3073679319614
  0
TEXT
  8
1
 40
2.475
 41
0.75
  1
12
  7
STANDARD
 72
2
 10
6.69569373529922
 20
-14.3073679319614
 11
6.69569373529922
 21
-14.3073679319614
  0
TEXT
  8
1
 40
2.475
 41
0.75
  1
14
  7
STANDARD
 72
2
 10
-29.3043062647008
 20
-14.3073679319614
 11
-29.3043062647008
 21
-14.3073679319614
  0
LINE
  8
1
 10
24.0991751988729
 20
-10.0737463126844
 11
24.0991751988729
 21
-14.0737463126844
  0
LINE
  8
1
 10
8.09917519887289
 20
-10.0737463126844
 11
8.09917519887289
 21
-14.0737463126844
  0
LINE
  8
1
 10
-11.9008248011271
 20
-10.0737463126844
 11
-11.9008248011271
 21
-14.0737463126844
  0
LINE
  8
1
 10
-23.9008248011271
 20
-10.0737463126844
 11
-23.9008248011271
 21
-14.0737463126844
  0
LINE
  8
1
 10
24.0991751988729
 20
10.0737463126844
 11
24.0991751988729
 21
14.0737463126844
  0
LINE
  8
1
 10
-11.9008248011271
 20
9.92625368731562
 11
-11.9008248011271
 21
13.9262536873156
  0
LINE
  8
1
 10
-27.9008248011271
 20
-10.0737463126844
 11
-27.9008248011271
 21
-14.0737463126844
  0
TEXT
  8
1
 40
2.475
 41
0.75
  1
112
  7
STANDARD
 72
2
 73
2
 10
3.24917519887289
 20
5.22625368731562
 11
3.24917519887289
 21
5.22625368731562
  0
TEXT
  8
1
 40
2.475
 41
0.75
  1
14
  7
STANDARD
 72
2
 73
2
 10
-32.4508248011271
 20
5.22625368731562
 11
-32.4508248011271
 21
5.22625368731562
  0
LINE
  8
1
 10
4.09917519887289
 20
-2.07374631268438
 11
6.09917519887289
 21
1.92625368731562
  0
POLYLINE
  8
1
 66
1
  0
VERTEX
  8
1
 10
2.09917519887289
 20
1.92625368731562
  0
VERTEX
  8
1
 10
8.09917519887289
 20
1.92625368731562
  0
VERTEX
  8
1
 10
8.09917519887289
 20
-2.07374631268438
  0
VERTEX
  8
1
 10
2.09917519887289
 20
-2.07374631268438
  0
VERTEX
  8
1
 10
2.09917519887289
 20
1.92625368731562
  0
SEQEND
  8
1
  0
LINE
  8
1
 10
-31.9008248011271
 20
-2.07374631268438
 11
-29.9008248011271
 21
1.92625368731562
  0
POLYLINE
  8
1
 66
1
  0
VERTEX
  8
1
 10
-33.9008248011271
 20
1.92625368731562
  0
VERTEX
  8
1
 10
-27.9008248011271
 20
1.92625368731562
  0
VERTEX
  8
1
 10
-27.9008248011271
 20
-2.07374631268438
  0
VERTEX
  8
1
 10
-33.9008248011271
 20
-2.07374631268438
  0
VERTEX
  8
1
 10
-33.9008248011271
 20
1.92625368731562
  0
SEQEND
  8
1
  0
POLYLINE
  8
1
 66
1
  0
VERTEX
  8
1
 10
28.0991751988729
 20
1.92625368731564
  0
VERTEX
  8
1
 10
34.0991751988729
 20
1.92625368731564
  0
VERTEX
  8
1
 10
34.0991751988729
 20
-2.07374631268436
  0
VERTEX
  8
1
 10
28.0991751988729
 20
-2.07374631268436
  0
VERTEX
  8
1
 10
28.0991751988729
 20
1.92625368731564
  0
SEQEND
  8
1
  0
LINE
  8
1
 10
34.086382136211
 20
1.89392590613127
 11
30.6684069170685
 21
-0.0737463126843825
  0
LINE
  8
1
 10
30.6350735837351
 20
-0.0737463126843825
 11
28.0991751988729
 21
-0.0737463126843825
  0
LINE
  8
1
 10
34.0991751988729
 20
-2.07374631268438
 11
30.6350735837351
 21
-0.0737463126843825
  0
POLYLINE
  8
1
 66
1
  0
VERTEX
  8
1
 10
-7.90082480112711
 20
1.92743314201886
  0
VERTEX
  8
1
 10
-1.89905561907224
 20
1.92743314201886
  0
VERTEX
  8
1
 10
-1.89905561907224
 20
-2.07374631268439
  0
VERTEX
  8
1
 10
-7.90082480112711
 20
-2.07374631268439
  0
VERTEX
  8
1
 10
-7.90082480112711
 20
1.92743314201886
  0
SEQEND
  8
1
  0
LINE
  8
1
 10
-1.95476474945896
 20
1.87717228818748
 11
-5.38185393676293
 21
-0.073746312684392
  0
LINE
  8
1
 10
-5.36492641626487
 20
-0.0737463126843825
 11
-7.90082480112711
 21
-0.0737463126843825
  0
LINE
  8
1
 10
-1.90082480112711
 20
-2.07374631268438
 11
-5.36492641626487
 21
-0.0737463126843825
  0
LINE
  8
1
 10
4.09917519887289
 20
5.42625368731562
 11
8.09917519887289
 21
5.42625368731562
  0
LINE
  8
1
 10
4.09917519887289
 20
5.92625368731562
 11
4.09917519887289
 21
2.92625368731562
  0
LINE
  8
1
 10
4.09917519887289
 20
3.42625368731562
 11
8.09917519887289
 21
3.42625368731562
  0
LINE
  8
1
 10
8.09917519887289
 20
1.92625368731562
 11
8.09917519887289
 21
5.92625368731562
  0
LINE
  8
1
 10
-31.9008248011271
 20
5.42625368731562
 11
-27.9008248011271
 21
5.42625368731562
  0
LINE
  8
1
 10
-31.9008248011271
 20
5.92625368731562
 11
-31.9008248011271
 21
2.92625368731562
  0
LINE
  8
1
 10
-31.9008248011271
 20
3.42625368731562
 11
-27.9008248011271
 21
3.42625368731562
  0
LINE
  8
1
 10
-27.9008248011271
 20
1.92625368731562
 11
-27.9008248011271
 21
5.92625368731562
  0
POLYLINE
  8
1
 66
1
  0
VERTEX
  8
1
 10
8.09917519887289
 20
1.92625368731562
  0
VERTEX
  8
1
 10
12.0991751988729
 20
1.92625368731562
  0
VERTEX
  8
1
 10
12.0991751988729
 20
-2.07374631268438
  0
VERTEX
  8
1
 10
8.09917519887289
 20
-2.07374631268438
  0
VERTEX
  8
1
 10
8.09917519887289
 20
1.92625368731562
  0
SEQEND
  8
1
  0
LINE
  8
1
 10
8.09917519887289
 20
1.92625368731562
 11
8.09917519887289
 21
-2.07374631268438
  0
LINE
  8
1
 10
8.09917519887289
 20
1.92625368731562
 11
11.5632768140106
 21
-0.0737463126843825
  0
LINE
  8
1
 10
8.09917519887289
 20
-2.07374631268438
 11
11.5632768140106
 21
-0.0737463126843825
  0
POLYLINE
  8
1
 66
1
  0
VERTEX
  8
1
 10
-27.9008248011271
 20
1.92625368731562
  0
VERTEX
  8
1
 10
-23.9008248011271
 20
1.92625368731562
  0
VERTEX
  8
1
 10
-23.9008248011271
 20
-2.07374631268438
  0
VERTEX
  8
1
 10
-27.9008248011271
 20
-2.07374631268438
  0
VERTEX
  8
1
 10
-27.9008248011271
 20
1.92625368731562
  0
SEQEND
  8
1
  0
LINE
  8
1
 10
-27.9008248011271
 20
1.92625368731562
 11
-27.9008248011271
 21
-2.07374631268438
  0
LINE
  8
1
 10
-27.9008248011271
 20
1.92625368731562
 11
-24.4367231859894
 21
-0.0737463126843825
  0
LINE
  8
1
 10
-27.9008248011271
 20
-2.07374631268438
 11
-24.4367231859894
 21
-0.0737463126843825
  0
LINE
  8
1
 10
24.0991751988729
 20
5.92625368731562
 11
24.0991751988729
 21
3.92625368731562
  0
INSERT
  8
1
  2
LCBP1
 10
24.0991751988729
 20
3.92625368731562
 50
-90
  0
LINE
  8
1
 10
24.0991751988729
 20
-2.07374631268438
 11
24.0991751988729
 21
-0.0737463126843825
  0
INSERT
  8
1
  2
LCBP1
 10
24.0991751988729
 20
-0.0737463126843825
 50
90
  0
POLYLINE
  8
1
 66
1
  0
VERTEX
  8
1
 10
20.0991751988729
 20
5.92625368731562
  0
VERTEX
  8
1
 10
28.0991751988729
 20
5.92625368731562
  0
VERTEX
  8
1
 10
28.0991751988729
 20
-2.07374631268438
  0
VERTEX
  8
1
 10
20.0991751988729
 20
-2.07374631268438
  0
VERTEX
  8
1
 10
20.0991751988729
 20
5.92625368731562
  0
SEQEND
  8
1
  0
LINE
  8
1
 10
-11.9008248011271
 20
5.92625368731562
 11
-11.9008248011271
 21
3.92625368731562
  0
INSERT
  8
1
  2
LCBP1
 10
-11.9008248011271
 20
3.92625368731562
 50
-90
  0
LINE
  8
1
 10
-11.9008248011271
 20
-2.07374631268438
 11
-11.9008248011271
 21
-0.0737463126843825
  0
INSERT
  8
1
  2
LCBP1
 10
-11.9008248011271
 20
-0.0737463126843825
 50
90
  0
POLYLINE
  8
1
 66
1
  0
VERTEX
  8
1
 10
-15.9008248011271
 20
5.92625368731562
  0
VERTEX
  8
1
 10
-7.90082480112711
 20
5.92625368731562
  0
VERTEX
  8
1
 10
-7.90082480112711
 20
-2.07374631268438
  0
VERTEX
  8
1
 10
-15.9008248011271
 20
-2.07374631268438
  0
VERTEX
  8
1
 10
-15.9008248011271
 20
5.92625368731562
  0
SEQEND
  8
1
  0
LINE
  8
1
 10
16.0991751988729
 20
-2.07374631268438
 11
16.0991751988729
 21
5.92625368731562
  0
INSERT
  8
1
  2
LCA1
 10
16.0991751988729
 20
5.92625368731562
 50
90
  0
POLYLINE
  8
1
 66
1
  0
VERTEX
  8
1
 10
12.0991751988729
 20
5.92625368731562
  0
VERTEX
  8
1
 10
20.0991751988729
 20
5.92625368731562
  0
VERTEX
  8
1
 10
20.0991751988729
 20
-2.07374631268438
  0
VERTEX
  8
1
 10
12.0991751988729
 20
-2.07374631268438
  0
VERTEX
  8
1
 10
12.0991751988729
 20
5.92625368731562
  0
SEQEND
  8
1
  0
LINE
  8
1
 10
-19.9008248011271
 20
-2.07374631268438
 11
-19.9008248011271
 21
5.92625368731562
  0
INSERT
  8
1
  2
LCA1
 10
-19.9008248011271
 20
5.92625368731562
 50
90
  0
POLYLINE
  8
1
 66
1
  0
VERTEX
  8
1
 10
-23.9008248011271
 20
5.92625368731562
  0
VERTEX
  8
1
 10
-15.9008248011271
 20
5.92625368731562
  0
VERTEX
  8
1
 10
-15.9008248011271
 20
-2.07374631268438
  0
VERTEX
  8
1
 10
-23.9008248011271
 20
-2.07374631268438
  0
VERTEX
  8
1
 10
-23.9008248011271
 20
5.92625368731562
  0
SEQEND
  8
1
  0
CIRCLE
  8
CONNECTIONS
 10
-11.9008248011271
 20
13.9262536873156
 40
0
  0
CIRCLE
  8
CONNECTIONS
 10
24.0991751988729
 20
13.9262536873156
 40
0
  0
CIRCLE
  8
CONNECTIONS
 10
-27.9008248011271
 20
-14.0737463126844
 40
0
  0
CIRCLE
  8
CONNECTIONS
 10
-11.9008248011271
 20
-14.0737463126844
 40
0
  0
CIRCLE
  8
CONNECTIONS
 10
-23.9008248011271
 20
-14.0737463126844
 40
0
  0
CIRCLE
  8
CONNECTIONS
 10
8.09917519887289
 20
-14.0737463126844
 40
0
  0
CIRCLE
  8
CONNECTIONS
 10
24.0991751988729
 20
-14.0737463126844
 40
0
  0
CIRCLE
  8
CONNECTIONS
 10
2.09917519887289
 20
-0.0737463126843825
 40
0
  0
CIRCLE
  8
CONNECTIONS
 10
-33.9008248011271
 20
-0.0737463126843825
 40
0
  0
ENDBLK
  8
0
  0
ENDSEC
  0
SECTION
  2
ENTITIES
  0
INSERT
  8
1
  2
B37341_00991801
 10
38.0991751988729
 20
14.0737463126844
  0
ENDSEC
  0
EOF
