  0
SECTION
  2
HEADER
  9
$LIMMIN
 10
0
 20
0
  9
$LIMMAX
 10
52.5
 20
74.25
  9
$EXTMIN
 10
0
 20
116
  9
$EXTMAX
 10
0
 20
46
  0
ENDSEC
  0
SECTION
  2
TABLES
  0
TABLE
  2
LTYPE
 70
9
  0
LTYPE
  2
CONTINUOUS
 70
64
  3
Solid line
 72
65
 73
0
 40
0
  0
LTYPE
  2
DASHED
 70
64
  3
__ __ __ __ __ __ __ __ __
 72
65
 73
2
 40
0.75
 49
0.5
 49
-0.25
  0
LTYPE
  2
DOT
 70
64
  3
...........................
 72
65
 73
2
 40
0.25
 49
0
 49
-0.25
  0
LTYPE
  2
DASHDOT
 70
64
  3
__ . __ . __ . __ . __ . __ . 
 72
65
 73
4
 40
1
 49
0.5
 49
-0.25
 49
0
 49
-0.25
  0
ENDTAB
  0
TABLE
  2
LAYER
 70
10
  0
LAYER
  2
1
 70
0
 62
7
  6
CONTINUOUS
  0
LAYER
  2
CONNECTIONS
 70
0
 62
-7
  6
CONTINUOUS
  0
ENDTAB
  0
ENDSEC
  0
SECTION
  2
BLOCKS
  0
BLOCK
  8
0
  2
TRICON
 70
0
 10
0
 20
0
  0
POLYLINE
  8
1
 70
1
 66
1
 40
0.5
 41
0.5
  0
VERTEX
  8
1
 10
-0.25
 20
0
 42
1
  0
VERTEX
  8
1
 10
0.25
 20
0
 42
1
  0
SEQEND
  8
1
  0
ENDBLK
  8
0
  0
BLOCK
  8
0
  2
TRICONSMALL
 70
0
 10
0
 20
0
  0
POLYLINE
  8
1
 70
1
 66
1
 40
0.25
 41
0.25
  0
VERTEX
  8
1
 10
-0.125
 20
0
 42
1
  0
VERTEX
  8
1
 10
0.125
 20
0
 42
1
  0
SEQEND
  8
1
  0
ENDBLK
  8
0
  0
BLOCK
  8
0
  2
TRICONCIRCLE
 70
0
 10
0
 20
0
  0
CIRCLE
  8
1
 10
0
 20
0
 40
0.5
  0
ENDBLK
  8
0
  0
BLOCK
  8
0
  2
LCBP0
 70
0
 10
0
 20
0
  0
LINE
  8
1
 10
0
 20
-0.46875
 11
0
 21
0.46875
  0
ENDBLK
  8
0
  0
BLOCK
  8
0
  2
LCBP1
 70
0
 10
0
 20
0
  0
LINE
  8
1
 10
0
 20
-0.625
 11
0
 21
0.625
  0
ENDBLK
  8
0
  0
BLOCK
  8
0
  2
LCBP2
 70
0
 10
0
 20
0
  0
LINE
  8
1
 10
0
 20
-0.9375
 11
0
 21
0.9375
  0
ENDBLK
  8
0
  0
BLOCK
  8
0
  2
LCA1
 70
0
 10
0
 20
0
  0
SOLID
  8
1
 62
7 
 10
0
 20
0
 11
-1.4
 21
-0.275
 12
-1.4
 22
0.275
 13
-1.4
 23
0.275
  0
ENDBLK
  8
0
  0
BLOCK
  8
0
  2
LCA2
 70
0
 10
0
 20
0
  0
SOLID
  8
1
 62
7 
 10
0
 20
0
 11
-1.65
 21
-0.525
 12
-1.65
 22
0.525
 13
-1.65
 23
0.525
  0
ENDBLK
  8
0
  0
BLOCK
  8
0
  2
LCA3
 70
0
 10
0
 20
0
  0
SOLID
  8
1
 62
7 
 10
0
 20
0
 11
-2.15
 21
-1.15
 12
-2.15
 22
1.15
 13
-2.15
 23
1.15
  0
ENDBLK
  8
0
  0
BLOCK
  8
0
  2
LCA1R
 70
0
 10
0
 20
0
  0
SOLID
  8
1
 62
7 
 10
0
 20
0
 11
1.4
 21
-0.275
 12
1.4
 22
0.275
 13
1.4
 23
0.275
  0
ENDBLK
  8
0
  0
BLOCK
  8
0
  2
LCA2R
 70
0
 10
0
 20
0
  0
SOLID
  8
1
 62
7 
 10
0
 20
0
 11
1.65
 21
-0.525
 12
1.65
 22
0.525
 13
1.65
 23
0.525
  0
ENDBLK
  8
0
  0
BLOCK
  8
0
  2
LCA3R
 70
0
 10
0
 20
0
  0
SOLID
  8
1
 62
7 
 10
0
 20
0
 11
2.15
 21
-1.15
 12
2.15
 22
1.15
 13
2.15
 23
1.15
  0
ENDBLK
  8
0
  0
BLOCK
  8
0
  2
B5653_00991763
 70
0
 10
0
 20
0
  0
POLYLINE
  8
1
  6
DASHDOT
 66
1
  0
VERTEX
  8
1
 10
-54
 20
23
  0
VERTEX
  8
1
 10
54
 20
23
  0
VERTEX
  8
1
 10
54
 20
-19
  0
VERTEX
  8
1
 10
-54
 20
-19
  0
VERTEX
  8
1
 10
-54
 20
23
  0
SEQEND
  8
1
  0
LINE
  8
1
 10
46
 20
-19
 11
46
 21
-21
  0
LINE
  8
1
 10
54
 20
-3
 11
58
 21
-3
  0
LINE
  8
1
 10
6
 20
-19
 11
6
 21
-23
  0
LINE
  8
1
 10
-32
 20
-19
 11
-32
 21
-23
  0
TEXT
  8
1
 40
2.475
 41
0.75
  1
1
  7
STANDARD
 72
2
 10
-54.4655974188913
 20
-1.11554957911929
 11
-54.4655974188913
 21
-1.11554957911929
  0
TEXT
  8
1
 40
2.475
 41
0.75
  1
3
  7
STANDARD
 73
2
 10
-57.9345238095238
 20
-10.6190476190476
 11
-57.9345238095238
 21
-10.6190476190476
  0
LINE
  8
1
 10
-54
 20
-7
 11
-58
 21
-7
  0
LINE
  8
1
 10
-58
 20
-3
 11
-54
 21
-3
  0
TEXT
  8
1
 40
2.475
 41
0.75
  1
3
  7
STANDARD
 73
2
 10
2
 20
-23
 11
2
 21
-23
  0
TEXT
  8
1
 40
2.475
 41
0.75
  1
2
  7
STANDARD
 73
2
 10
57.1584699453552
 20
0.0163934426229755
 11
57.1584699453552
 21
0.0163934426229755
  0
LINE
  8
1
 10
38
 20
-3
 11
54
 21
-3
  0
LINE
  8
1
 10
46
 20
5
 11
46
 21
-19
  0
POLYLINE
  8
1
 66
1
  0
VERTEX
  8
1
 10
6
 20
-19
  0
VERTEX
  8
1
 10
6
 20
-7
  0
VERTEX
  8
1
 10
10
 20
-7
  0
SEQEND
  8
1
  0
LINE
  8
1
 10
5.643476323071
 20
-3
 11
10
 21
-3
  0
LINE
  8
1
 10
-14
 20
-3
 11
-5.6702321759138
 21
-3
  0
POLYLINE
  8
1
 66
1
  0
VERTEX
  8
1
 10
-24
 20
-3
  0
VERTEX
  8
1
 10
-24
 20
-13
  0
VERTEX
  8
1
 10
-22
 20
-13
  0
SEQEND
  8
1
  0
LINE
  8
1
 10
-26.38005974091
 20
-3
 11
-22
 21
-3
  0
LINE
  8
1
 10
-32
 20
-8.67979989061747
 11
-32
 21
-19
  0
LINE
  8
1
 10
-42
 20
-3
 11
-37.6937682398947
 21
-3
  0
LINE
  8
1
 10
-50
 20
-7
 11
-54
 21
-7
  0
LINE
  8
1
 10
-54
 20
-3
 11
-50
 21
-3
  0
POLYLINE
  8
1
 70
1
 66
1
 40
0.5
 41
0.5
  0
VERTEX
  8
1
 10
23.75
 20
-3
 42
1
  0
VERTEX
  8
1
 10
24.25
 20
-3
 42
1
  0
SEQEND
  8
1
  0
LINE
  8
1
 10
18
 20
-3
 11
30
 21
-3
  0
POLYLINE
  8
1
 70
1
 66
1
 40
0.5
 41
0.5
  0
VERTEX
  8
1
 10
39.75
 20
-3
 42
1
  0
VERTEX
  8
1
 10
40.25
 20
-3
 42
1
  0
SEQEND
  8
1
  0
POLYLINE
  8
1
 70
1
 66
1
 40
0.5
 41
0.5
  0
VERTEX
  8
1
 10
31.75
 20
19
 42
1
  0
VERTEX
  8
1
 10
32.25
 20
19
 42
1
  0
SEQEND
  8
1
  0
POLYLINE
  8
1
 66
1
  0
VERTEX
  8
1
 10
24
 20
13
  0
VERTEX
  8
1
 10
24
 20
19
  0
VERTEX
  8
1
 10
32
 20
19
  0
VERTEX
  8
1
 10
32
 20
15
  0
VERTEX
  8
1
 10
32
 20
19
  0
VERTEX
  8
1
 10
40
 20
19
  0
VERTEX
  8
1
 10
40
 20
-3
  0
SEQEND
  8
1
  0
POLYLINE
  8
1
 70
1
 66
1
 40
0.5
 41
0.5
  0
VERTEX
  8
1
 10
-24.25
 20
-3
 42
1
  0
VERTEX
  8
1
 10
-23.75
 20
-3
 42
1
  0
SEQEND
  8
1
  0
POLYLINE
  8
1
 70
1
 66
1
 40
0.5
 41
0.5
  0
VERTEX
  8
1
 10
-10.25
 20
-3
 42
1
  0
VERTEX
  8
1
 10
-9.75
 20
-3
 42
1
  0
SEQEND
  8
1
  0
POLYLINE
  8
1
 66
1
  0
VERTEX
  8
1
 10
-12
 20
-13
  0
VERTEX
  8
1
 10
-10
 20
-13
  0
VERTEX
  8
1
 10
-10
 20
-3
  0
SEQEND
  8
1
  0
LINE
  8
1
 10
-10
 20
3
 11
-10
 21
-3
  0
LINE
  8
1
 10
46
 20
-21
 11
46
 21
-23
  0
INSERT
  8
1
  2
LCBP1
 10
46
 20
-23
 50
-90
  0
LINE
  8
1
 10
-0.0133779264214127
 20
-0.673518137818083
 11
-0.0133779264214127
 21
2.64019036116666
  0
POLYLINE
  8
1
 66
1
  0
VERTEX
  8
1
 10
-0.0133779264215027
 20
2.64019036116662
  0
VERTEX
  8
1
 10
-5.67023217591375
 20
-3.01666388832575
  0
VERTEX
  8
1
 10
-0.0133779264215027
 20
-8.673518137818
  0
VERTEX
  8
1
 10
5.643476323071
 20
-3.01666388832575
  0
VERTEX
  8
1
 10
-0.0133779264215027
 20
2.64019036116662
  0
SEQEND
  8
1
  0
LINE
  8
1
 10
-34.0368868636663
 20
-6.67979989061747
 11
-30.0369017312043
 21
-6.67979989061747
  0
POLYLINE
  8
1
 66
1
  0
VERTEX
  8
1
 10
-34.0368868636662
 20
-6.6798270173535
  0
VERTEX
  8
1
 10
-32.0369139904025
 20
-8.6797998906175
  0
VERTEX
  8
1
 10
-30.0369017312042
 20
-6.6797876314195
  0
SEQEND
  8
1
  0
LINE
  8
1
  6
DASHED
 10
-32.0368998568995
 20
-6.67979989061747
 11
-32.0368998568995
 21
2.63390860836725
  0
POLYLINE
  8
1
 66
1
  0
VERTEX
  8
1
 10
-32.0369139904025
 20
2.63390860836728
  0
VERTEX
  8
1
 10
-37.6937682398947
 20
-3.022945641125
  0
VERTEX
  8
1
 10
-32.0369139904025
 20
-8.6797998906175
  0
VERTEX
  8
1
 10
-26.38005974091
 20
-3.022945641125
  0
VERTEX
  8
1
 10
-32.0369139904025
 20
2.63390860836728
  0
SEQEND
  8
1
  0
LINE
  8
1
 10
-8.23223304703364
 20
5.23223304703364
 11
-11.7677669529664
 21
8.76776695296637
  0
INSERT
  8
1
  2
LCA1
 10
-11.7677669529664
 20
8.76776695296637
 50
135
  0
CIRCLE
  8
1
 10
-10
 20
7
 40
4
  0
LINE
  8
1
 10
50.4502923976608
 20
12.5
 11
41.4502923976608
 21
14.5
  0
INSERT
  8
1
  2
LCA1
 10
41.4502923976608
 20
14.5
 50
167.471192290848
  0
POLYLINE
  8
1
 66
1
  0
VERTEX
  8
1
 10
45.9502923976607
 20
16
  0
VERTEX
  8
1
 10
47.9502923976607
 20
15.5833333333333
  0
VERTEX
  8
1
 10
43.9502923976607
 20
14.75
  0
VERTEX
  8
1
 10
47.9502923976607
 20
13.9166666666667
  0
VERTEX
  8
1
 10
43.9502923976607
 20
13.0833333333333
  0
VERTEX
  8
1
 10
47.9502923976607
 20
12.25
  0
VERTEX
  8
1
 10
43.9502923976607
 20
11.4166666666667
  0
VERTEX
  8
1
 10
45.9502923976607
 20
11
  0
SEQEND
  8
1
  0
POLYLINE
  8
1
 66
1
  0
VERTEX
  8
1
 10
46.2502923976607
 20
6.15
  0
VERTEX
  8
1
 10
46.2502923976607
 20
7.15
  0
VERTEX
  8
1
 10
45.2502923976607
 20
9.65
  0
SEQEND
  8
1
  0
LINE
  8
1
 10
46.2502923976608
 20
8.84999999999999
 11
46.2502923976608
 21
9.84999999999999
  0
POLYLINE
  8
1
 66
1
  0
VERTEX
  8
1
 10
42.9502923976607
 20
5
  0
VERTEX
  8
1
 10
48.9502923976607
 20
5
  0
VERTEX
  8
1
 10
48.9502923976607
 20
11
  0
VERTEX
  8
1
 10
42.9502923976607
 20
11
  0
VERTEX
  8
1
 10
42.9502923976607
 20
5
  0
SEQEND
  8
1
  0
LINE
  8
1
 10
-16
 20
-13
 11
-12
 21
-13
  0
LINE
  8
1
 10
-22
 20
-13
 11
-18.4759962576611
 21
-13
  0
CIRCLE
  8
1
 10
-17.5
 20
-13
 40
1
  0
POLYLINE
  8
1
 66
1
  0
VERTEX
  8
1
 10
-18
 20
-15
  0
VERTEX
  8
1
 10
-16
 20
-13
  0
VERTEX
  8
1
 10
-18
 20
-11
  0
SEQEND
  8
1
  0
LINE
  8
1
 10
20.2928932188134
 20
6.58578643762691
 11
27.3639610306789
 21
3.75735931288072
  0
INSERT
  8
1
  2
LCA1
 10
27.3639610306789
 20
3.75735931288072
 50
-21.8014094863518
  0
LINE
  8
1
 10
24
 20
13
 11
24
 21
-3
  0
ARC
  8
1
 10
14
 20
5
 40
9
 50
340.528596800055
 51
19.4710505793386
  0
ARC
  8
1
 10
34
 20
5
 40
9
 50
160.52865870751
 51
199.47139531546
  0
POLYLINE
  8
1
 66
1
  0
VERTEX
  8
1
 10
-42
 20
7
  0
VERTEX
  8
1
 10
-50
 20
7
  0
VERTEX
  8
1
 10
-50
 20
-1
  0
VERTEX
  8
1
 10
-42
 20
-1
  0
VERTEX
  8
1
 10
-42
 20
7
  0
SEQEND
  8
1
  0
LINE
  8
1
 10
-50
 20
1
 11
-48
 21
1
  0
INSERT
  8
1
  2
LCBP1
 10
-48
 20
1
 50
0
  0
LINE
  8
1
 10
-50
 20
5
 11
-42
 21
5
  0
INSERT
  8
1
  2
LCA1
 10
-42
 20
5
 50
0
  0
LINE
  8
1
 10
-50
 20
-3
 11
-48
 21
-3
  0
INSERT
  8
1
  2
LCBP1
 10
-48
 20
-3
 50
0
  0
POLYLINE
  8
1
 66
1
  0
VERTEX
  8
1
 10
-42
 20
-1
  0
VERTEX
  8
1
 10
-50
 20
-1
  0
VERTEX
  8
1
 10
-50
 20
-9
  0
VERTEX
  8
1
 10
-42
 20
-9
  0
VERTEX
  8
1
 10
-42
 20
-1
  0
SEQEND
  8
1
  0
LINE
  8
1
 10
-42
 20
-3
 11
-50
 21
-7
  0
INSERT
  8
1
  2
LCA1
 10
-50
 20
-7
 50
-153.434948822922
  0
LINE
  8
1
 10
-46
 20
10
 11
-44
 21
10
  0
LINE
  8
1
 10
-49.5
 20
13
 11
-46.5
 21
13
  0
LINE
  8
1
 10
-47
 20
11.25
 11
-47
 21
13
  0
POLYLINE
  8
1
 66
1
  0
VERTEX
  8
1
 10
-47
 20
11.25
  0
VERTEX
  8
1
 10
-47
 20
10.75
  0
VERTEX
  8
1
 10
-48.2990381056767
 20
10
  0
VERTEX
  8
1
 10
-47
 20
9.25
  0
VERTEX
  8
1
 10
-47
 20
8.75
  0
SEQEND
  8
1
  0
LINE
  8
1
 10
-47
 20
7
 11
-47
 21
8.75
  0
LINE
  8
1
 10
-49
 20
7
 11
-49
 21
13
  0
LINE
  8
1
 10
30
 20
15
 11
32
 21
11.5358983848622
  0
LINE
  8
1
 10
34
 20
15
 11
32
 21
11.5358983848622
  0
POLYLINE
  8
1
 66
1
  0
VERTEX
  8
1
 10
32
 20
-12
  0
VERTEX
  8
1
 10
30
 20
-11.5833333333333
  0
VERTEX
  8
1
 10
34
 20
-10.75
  0
VERTEX
  8
1
 10
30
 20
-9.91666666666675
  0
VERTEX
  8
1
 10
34
 20
-9.08333333333325
  0
VERTEX
  8
1
 10
30
 20
-8.25
  0
VERTEX
  8
1
 10
34
 20
-7.41666666666675
  0
VERTEX
  8
1
 10
32
 20
-7
  0
SEQEND
  8
1
  0
LINE
  8
1
 10
30
 20
5
 11
38
 21
5
  0
INSERT
  8
1
  2
LCA1
 10
38
 20
5
 50
0
  0
POLYLINE
  8
1
 66
1
  0
VERTEX
  8
1
 10
38
 20
9
  0
VERTEX
  8
1
 10
30
 20
9
  0
VERTEX
  8
1
 10
30
 20
1
  0
VERTEX
  8
1
 10
38
 20
1
  0
VERTEX
  8
1
 10
38
 20
9
  0
SEQEND
  8
1
  0
LINE
  8
1
 10
38
 20
-3
 11
36
 21
-3
  0
INSERT
  8
1
  2
LCBP1
 10
36
 20
-3
 50
-180
  0
LINE
  8
1
 10
30
 20
-3
 11
32
 21
-3
  0
INSERT
  8
1
  2
LCBP1
 10
32
 20
-3
 50
0
  0
POLYLINE
  8
1
 66
1
  0
VERTEX
  8
1
 10
38
 20
1
  0
VERTEX
  8
1
 10
30
 20
1
  0
VERTEX
  8
1
 10
30
 20
-7
  0
VERTEX
  8
1
 10
38
 20
-7
  0
VERTEX
  8
1
 10
38
 20
1
  0
SEQEND
  8
1
  0
POLYLINE
  8
1
 66
1
  0
VERTEX
  8
1
 10
34
 20
15
  0
VERTEX
  8
1
 10
30
 20
15
  0
VERTEX
  8
1
 10
30
 20
9
  0
VERTEX
  8
1
 10
34
 20
9
  0
VERTEX
  8
1
 10
34
 20
15
  0
SEQEND
  8
1
  0
POLYLINE
  8
1
 66
1
  0
VERTEX
  8
1
 10
32
 20
-12
  0
VERTEX
  8
1
 10
30
 20
-11.5833333333333
  0
VERTEX
  8
1
 10
34
 20
-10.75
  0
VERTEX
  8
1
 10
30
 20
-9.91666666666675
  0
VERTEX
  8
1
 10
34
 20
-9.08333333333325
  0
VERTEX
  8
1
 10
30
 20
-8.25
  0
VERTEX
  8
1
 10
34
 20
-7.41666666666675
  0
VERTEX
  8
1
 10
32
 20
-7
  0
SEQEND
  8
1
  0
POLYLINE
  8
1
 66
1
  0
VERTEX
  8
1
 10
12
 20
-14
  0
VERTEX
  8
1
 10
10
 20
-13.5833333333333
  0
VERTEX
  8
1
 10
14
 20
-12.75
  0
VERTEX
  8
1
 10
10
 20
-11.9166666666667
  0
VERTEX
  8
1
 10
14
 20
-11.0833333333333
  0
VERTEX
  8
1
 10
10
 20
-10.25
  0
VERTEX
  8
1
 10
14
 20
-9.41666666666675
  0
VERTEX
  8
1
 10
12
 20
-9
  0
SEQEND
  8
1
  0
POLYLINE
  8
1
 66
1
  0
VERTEX
  8
1
 10
18
 20
7
  0
VERTEX
  8
1
 10
10
 20
7
  0
VERTEX
  8
1
 10
10
 20
-1
  0
VERTEX
  8
1
 10
18
 20
-1
  0
VERTEX
  8
1
 10
18
 20
7
  0
SEQEND
  8
1
  0
LINE
  8
1
 10
10
 20
1
 11
12
 21
1
  0
INSERT
  8
1
  2
LCBP1
 10
12
 20
1
 50
0
  0
LINE
  8
1
 10
10
 20
5
 11
18
 21
5
  0
INSERT
  8
1
  2
LCA1
 10
18
 20
5
 50
0
  0
LINE
  8
1
 10
10
 20
-3
 11
12
 21
-3
  0
INSERT
  8
1
  2
LCBP1
 10
12
 20
-3
 50
0
  0
POLYLINE
  8
1
 66
1
  0
VERTEX
  8
1
 10
18
 20
-1
  0
VERTEX
  8
1
 10
10
 20
-1
  0
VERTEX
  8
1
 10
10
 20
-9
  0
VERTEX
  8
1
 10
18
 20
-9
  0
VERTEX
  8
1
 10
18
 20
-1
  0
SEQEND
  8
1
  0
LINE
  8
1
 10
18
 20
-3
 11
10
 21
-7
  0
INSERT
  8
1
  2
LCA1
 10
10
 20
-7
 50
-153.434948822922
  0
LINE
  8
1
 10
10
 20
11
 11
14
 21
9
  0
POLYLINE
  8
1
 66
1
  0
VERTEX
  8
1
 10
14
 20
13
  0
VERTEX
  8
1
 10
10
 20
13
  0
VERTEX
  8
1
 10
10
 20
7
  0
VERTEX
  8
1
 10
14
 20
7
  0
VERTEX
  8
1
 10
14
 20
13
  0
SEQEND
  8
1
  0
LINE
  8
1
 10
17.5
 20
11
 11
17.5
 21
7
  0
LINE
  8
1
 10
18
 20
11
 11
15
 21
11
  0
LINE
  8
1
 10
15.5
 20
11
 11
15.5
 21
7
  0
LINE
  8
1
 10
14
 20
7
 11
18
 21
7
  0
POLYLINE
  8
1
 66
1
  0
VERTEX
  8
1
 10
12
 20
-14
  0
VERTEX
  8
1
 10
10
 20
-13.5833333333333
  0
VERTEX
  8
1
 10
14
 20
-12.75
  0
VERTEX
  8
1
 10
10
 20
-11.9166666666667
  0
VERTEX
  8
1
 10
14
 20
-11.0833333333333
  0
VERTEX
  8
1
 10
10
 20
-10.25
  0
VERTEX
  8
1
 10
14
 20
-9.41666666666675
  0
VERTEX
  8
1
 10
12
 20
-9
  0
SEQEND
  8
1
  0
POLYLINE
  8
1
 70
1
 66
1
 40
0.5
 41
0.5
  0
VERTEX
  8
1
 10
45.75
 20
-3
 42
1
  0
VERTEX
  8
1
 10
46.25
 20
-3
 42
1
  0
SEQEND
  8
1
  0
POLYLINE
  8
1
 66
1
  0
VERTEX
  8
1
 10
42
 20
0
  0
VERTEX
  8
1
 10
50
 20
0
  0
VERTEX
  8
1
 10
50
 20
-6
  0
VERTEX
  8
1
 10
42
 20
-6
  0
VERTEX
  8
1
 10
42
 20
0
  0
SEQEND
  8
1
  0
LINE
  8
1
 10
-24.4425978826423
 20
4.27036371433004
 11
-15.5571264213402
 21
6.72971259368521
  0
INSERT
  8
1
  2
LCA1
 10
-15.5571264213402
 20
6.72971259368521
 50
15.4711922908485
  0
POLYLINE
  8
1
 66
1
  0
VERTEX
  8
1
 10
-19.9998889119004
 20
3.0000231433541
  0
VERTEX
  8
1
 10
-17.9998889119004
 20
3.4166898100208
  0
VERTEX
  8
1
 10
-21.9998889119004
 20
4.2500231433541
  0
VERTEX
  8
1
 10
-17.9998889119004
 20
5.08335647668745
  0
VERTEX
  8
1
 10
-21.9998889119004
 20
5.9166898100208
  0
VERTEX
  8
1
 10
-17.9998889119004
 20
6.7500231433541
  0
VERTEX
  8
1
 10
-21.9998889119004
 20
7.5833564766874
  0
VERTEX
  8
1
 10
-19.9998889119004
 20
8.0000231433541
  0
SEQEND
  8
1
  0
POLYLINE
  8
1
 66
1
  0
VERTEX
  8
1
 10
-22
 20
2
  0
VERTEX
  8
1
 10
-24
 20
1
  0
VERTEX
  8
1
 10
-22
 20
0
  0
SEQEND
  8
1
  0
POLYLINE
  8
1
  6
DOT
 66
1
  0
VERTEX
  8
1
 10
-20
 20
-5
  0
VERTEX
  8
1
 10
-20
 20
-9
  0
VERTEX
  8
1
 10
-12
 20
-9
  0
VERTEX
  8
1
 10
-12
 20
-5
  0
VERTEX
  8
1
 10
-14
 20
-3
  0
SEQEND
  8
1
  0
POLYLINE
  8
1
 66
1
  0
VERTEX
  8
1
 10
-22
 20
-5
  0
VERTEX
  8
1
 10
-14
 20
-5
  0
VERTEX
  8
1
 10
-14
 20
3
  0
VERTEX
  8
1
 10
-22
 20
3
  0
VERTEX
  8
1
 10
-22
 20
-5
  0
SEQEND
  8
1
  0
LINE
  8
1
 10
-14
 20
-3
 11
-22
 21
-3
  0
INSERT
  8
1
  2
LCA1
 10
-22
 20
-3
 50
-180
  0
INSERT
  8
1
  2
LCA1R
 10
-14
 20
-3
 50
-180
  0
CIRCLE
  8
CONNECTIONS
 10
-58
 20
-3
 40
0
  0
CIRCLE
  8
CONNECTIONS
 10
-58
 20
-7
 40
0
  0
CIRCLE
  8
CONNECTIONS
 10
58
 20
-3
 40
0
  0
CIRCLE
  8
CONNECTIONS
 10
6
 20
-23
 40
0
  0
CIRCLE
  8
CONNECTIONS
 10
46
 20
-21
 40
0
  0
CIRCLE
  8
CONNECTIONS
 10
12
 20
13
 40
0
  0
CIRCLE
  8
CONNECTIONS
 10
45.9501797728583
 20
11
 40
0
  0
ENDBLK
  8
0
  0
ENDSEC
  0
SECTION
  2
ENTITIES
  0
INSERT
  8
1
  2
B5653_00991763
 10
58
 20
23
  0
ENDSEC
  0
EOF
