  0
SECTION
  2
HEADER
  9
$LIMMIN
 10
0
 20
0
  9
$LIMMAX
 10
52.5
 20
74.25
  9
$EXTMIN
 10
0
 20
102
  9
$EXTMAX
 10
0
 20
46
  0
ENDSEC
  0
SECTION
  2
TABLES
  0
TABLE
  2
LTYPE
 70
9
  0
LTYPE
  2
CONTINUOUS
 70
64
  3
Solid line
 72
65
 73
0
 40
0
  0
LTYPE
  2
DASHED
 70
64
  3
__ __ __ __ __ __ __ __ __
 72
65
 73
2
 40
0.75
 49
0.5
 49
-0.25
  0
LTYPE
  2
DOT
 70
64
  3
...........................
 72
65
 73
2
 40
0.25
 49
0
 49
-0.25
  0
LTYPE
  2
DASHDOT
 70
64
  3
__ . __ . __ . __ . __ . __ . 
 72
65
 73
4
 40
1
 49
0.5
 49
-0.25
 49
0
 49
-0.25
  0
ENDTAB
  0
TABLE
  2
LAYER
 70
10
  0
LAYER
  2
1
 70
0
 62
7
  6
CONTINUOUS
  0
LAYER
  2
CONNECTIONS
 70
0
 62
-7
  6
CONTINUOUS
  0
ENDTAB
  0
ENDSEC
  0
SECTION
  2
BLOCKS
  0
BLOCK
  8
0
  2
TRICON
 70
0
 10
0
 20
0
  0
POLYLINE
  8
1
 70
1
 66
1
 40
0.5
 41
0.5
  0
VERTEX
  8
1
 10
-0.25
 20
0
 42
1
  0
VERTEX
  8
1
 10
0.25
 20
0
 42
1
  0
SEQEND
  8
1
  0
ENDBLK
  8
0
  0
BLOCK
  8
0
  2
TRICONSMALL
 70
0
 10
0
 20
0
  0
POLYLINE
  8
1
 70
1
 66
1
 40
0.25
 41
0.25
  0
VERTEX
  8
1
 10
-0.125
 20
0
 42
1
  0
VERTEX
  8
1
 10
0.125
 20
0
 42
1
  0
SEQEND
  8
1
  0
ENDBLK
  8
0
  0
BLOCK
  8
0
  2
TRICONCIRCLE
 70
0
 10
0
 20
0
  0
CIRCLE
  8
1
 10
0
 20
0
 40
0.5
  0
ENDBLK
  8
0
  0
BLOCK
  8
0
  2
LCBP0
 70
0
 10
0
 20
0
  0
LINE
  8
1
 10
0
 20
-0.46875
 11
0
 21
0.46875
  0
ENDBLK
  8
0
  0
BLOCK
  8
0
  2
LCBP1
 70
0
 10
0
 20
0
  0
LINE
  8
1
 10
0
 20
-0.625
 11
0
 21
0.625
  0
ENDBLK
  8
0
  0
BLOCK
  8
0
  2
LCBP2
 70
0
 10
0
 20
0
  0
LINE
  8
1
 10
0
 20
-0.9375
 11
0
 21
0.9375
  0
ENDBLK
  8
0
  0
BLOCK
  8
0
  2
LCA1
 70
0
 10
0
 20
0
  0
SOLID
  8
1
 62
7 
 10
0
 20
0
 11
-1.4
 21
-0.275
 12
-1.4
 22
0.275
 13
-1.4
 23
0.275
  0
ENDBLK
  8
0
  0
BLOCK
  8
0
  2
LCA2
 70
0
 10
0
 20
0
  0
SOLID
  8
1
 62
7 
 10
0
 20
0
 11
-1.65
 21
-0.525
 12
-1.65
 22
0.525
 13
-1.65
 23
0.525
  0
ENDBLK
  8
0
  0
BLOCK
  8
0
  2
LCA3
 70
0
 10
0
 20
0
  0
SOLID
  8
1
 62
7 
 10
0
 20
0
 11
-2.15
 21
-1.15
 12
-2.15
 22
1.15
 13
-2.15
 23
1.15
  0
ENDBLK
  8
0
  0
BLOCK
  8
0
  2
LCA1R
 70
0
 10
0
 20
0
  0
SOLID
  8
1
 62
7 
 10
0
 20
0
 11
1.4
 21
-0.275
 12
1.4
 22
0.275
 13
1.4
 23
0.275
  0
ENDBLK
  8
0
  0
BLOCK
  8
0
  2
LCA2R
 70
0
 10
0
 20
0
  0
SOLID
  8
1
 62
7 
 10
0
 20
0
 11
1.65
 21
-0.525
 12
1.65
 22
0.525
 13
1.65
 23
0.525
  0
ENDBLK
  8
0
  0
BLOCK
  8
0
  2
LCA3R
 70
0
 10
0
 20
0
  0
SOLID
  8
1
 62
7 
 10
0
 20
0
 11
2.15
 21
-1.15
 12
2.15
 22
1.15
 13
2.15
 23
1.15
  0
ENDBLK
  8
0
  0
BLOCK
  8
0
  2
B5505_00991759
 70
0
 10
0
 20
0
  0
POLYLINE
  8
1
  6
DASHDOT
 66
1
  0
VERTEX
  8
1
 10
-47
 20
23
  0
VERTEX
  8
1
 10
47
 20
23
  0
VERTEX
  8
1
 10
47
 20
-19
  0
VERTEX
  8
1
 10
-47
 20
-19
  0
VERTEX
  8
1
 10
-47
 20
23
  0
SEQEND
  8
1
  0
LINE
  8
1
 10
47
 20
-3
 11
51
 21
-3
  0
LINE
  8
1
 10
39
 20
-19
 11
39
 21
-21
  0
LINE
  8
1
 10
-1
 20
-19
 11
-1
 21
-23
  0
LINE
  8
1
 10
-25
 20
-19
 11
-25
 21
-23
  0
TEXT
  8
1
 40
2.475
 41
0.75
  1
1
  7
STANDARD
 72
2
 10
-47.4655974188913
 20
-1.11554957911929
 11
-47.4655974188913
 21
-1.11554957911929
  0
TEXT
  8
1
 40
2.475
 41
0.75
  1
3
  7
STANDARD
 73
2
 10
-50.9345238095238
 20
-10.6190476190476
 11
-50.9345238095238
 21
-10.6190476190476
  0
LINE
  8
1
 10
-47
 20
-7
 11
-51
 21
-7
  0
LINE
  8
1
 10
-51
 20
-3
 11
-47
 21
-3
  0
TEXT
  8
1
 40
2.475
 41
0.75
  1
3
  7
STANDARD
 73
2
 10
-5
 20
-23
 11
-5
 21
-23
  0
TEXT
  8
1
 40
2.475
 41
0.75
  1
2
  7
STANDARD
 73
2
 10
50.1584699453552
 20
0.0163934426229755
 11
50.1584699453552
 21
0.0163934426229755
  0
LINE
  8
1
 10
31
 20
-3
 11
47
 21
-3
  0
LINE
  8
1
 10
39
 20
5
 11
39
 21
-19
  0
LINE
  8
1
 10
-1
 20
-19
 11
-1
 21
-7
  0
LINE
  8
1
 10
-7
 20
-3
 11
3
 21
-3
  0
LINE
  8
1
 10
-15
 20
-3
 11
-19.3432187464077
 21
-3
  0
POLYLINE
  8
1
 66
1
  0
VERTEX
  8
1
 10
-17
 20
-3
  0
VERTEX
  8
1
 10
-17
 20
-13
  0
VERTEX
  8
1
 10
-15
 20
-13
  0
SEQEND
  8
1
  0
LINE
  8
1
 10
-25
 20
-8.7076023391813
 11
-25
 21
-19
  0
LINE
  8
1
 10
-35
 20
-3
 11
-30.6567812535922
 21
-3
  0
LINE
  8
1
 10
-43
 20
-7
 11
-47
 21
-7
  0
LINE
  8
1
 10
-47
 20
-3
 11
-43
 21
-3
  0
LINE
  8
1
 10
-1
 20
-7
 11
3
 21
-7
  0
POLYLINE
  8
1
 70
1
 66
1
 40
0.5
 41
0.5
  0
VERTEX
  8
1
 10
16.75
 20
-3
 42
1
  0
VERTEX
  8
1
 10
17.25
 20
-3
 42
1
  0
SEQEND
  8
1
  0
LINE
  8
1
 10
11
 20
-3
 11
23
 21
-3
  0
POLYLINE
  8
1
 70
1
 66
1
 40
0.5
 41
0.5
  0
VERTEX
  8
1
 10
32.75
 20
-3
 42
1
  0
VERTEX
  8
1
 10
33.25
 20
-3
 42
1
  0
SEQEND
  8
1
  0
POLYLINE
  8
1
 70
1
 66
1
 40
0.5
 41
0.5
  0
VERTEX
  8
1
 10
24.75
 20
19
 42
1
  0
VERTEX
  8
1
 10
25.25
 20
19
 42
1
  0
SEQEND
  8
1
  0
POLYLINE
  8
1
 66
1
  0
VERTEX
  8
1
 10
17
 20
13
  0
VERTEX
  8
1
 10
17
 20
19
  0
VERTEX
  8
1
 10
25
 20
19
  0
VERTEX
  8
1
 10
25
 20
15
  0
VERTEX
  8
1
 10
25
 20
19
  0
VERTEX
  8
1
 10
33
 20
19
  0
VERTEX
  8
1
 10
33
 20
-3
  0
SEQEND
  8
1
  0
POLYLINE
  8
1
 70
1
 66
1
 40
0.5
 41
0.5
  0
VERTEX
  8
1
 10
-17.25
 20
-3
 42
1
  0
VERTEX
  8
1
 10
-16.75
 20
-3
 42
1
  0
SEQEND
  8
1
  0
POLYLINE
  8
1
 70
1
 66
1
 40
0.5
 41
0.5
  0
VERTEX
  8
1
 10
-3.25
 20
-3
 42
1
  0
VERTEX
  8
1
 10
-2.75
 20
-3
 42
1
  0
SEQEND
  8
1
  0
POLYLINE
  8
1
 66
1
  0
VERTEX
  8
1
 10
-5
 20
-13
  0
VERTEX
  8
1
 10
-3
 20
-13
  0
VERTEX
  8
1
 10
-3
 20
-3
  0
SEQEND
  8
1
  0
LINE
  8
1
 10
-3
 20
3
 11
-3
 21
-3
  0
LINE
  8
1
 10
39
 20
-21
 11
39
 21
-23
  0
INSERT
  8
1
  2
LCBP1
 10
39
 20
-23
 50
-90
  0
LINE
  8
1
 10
-26.9999728732639
 20
-6.7076023391813
 11
-22.9999877408019
 21
-6.7076023391813
  0
POLYLINE
  8
1
 66
1
  0
VERTEX
  8
1
 10
-26.999972873264
 20
-6.7076294659175
  0
VERTEX
  8
1
 10
-25
 20
-8.70760233918125
  0
VERTEX
  8
1
 10
-22.999987740802
 20
-6.70759007998325
  0
SEQEND
  8
1
  0
LINE
  8
1
  6
DASHED
 10
-24.9999858664972
 20
-6.7076023391813
 11
-24.9999858664972
 21
2.60610615980342
  0
POLYLINE
  8
1
 66
1
  0
VERTEX
  8
1
 10
-25
 20
2.60610615980342
  0
VERTEX
  8
1
 10
-30.6568542494924
 20
-3.050748089689
  0
VERTEX
  8
1
 10
-25
 20
-8.70760233918125
  0
VERTEX
  8
1
 10
-19.3431457505075
 20
-3.050748089689
  0
VERTEX
  8
1
 10
-25
 20
2.60610615980342
  0
SEQEND
  8
1
  0
LINE
  8
1
 10
-1.23223304703364
 20
5.23223304703364
 11
-4.76776695296637
 21
8.76776695296637
  0
INSERT
  8
1
  2
LCA1
 10
-4.76776695296637
 20
8.76776695296637
 50
135
  0
CIRCLE
  8
1
 10
-3
 20
7
 40
4
  0
LINE
  8
1
 10
43.4502923976608
 20
12.5
 11
34.4502923976608
 21
14.5
  0
INSERT
  8
1
  2
LCA1
 10
34.4502923976608
 20
14.5
 50
167.471192290848
  0
POLYLINE
  8
1
 66
1
  0
VERTEX
  8
1
 10
38.9502923976608
 20
16
  0
VERTEX
  8
1
 10
40.9502923976608
 20
15.5833333333333
  0
VERTEX
  8
1
 10
36.9502923976608
 20
14.75
  0
VERTEX
  8
1
 10
40.9502923976608
 20
13.9166666666667
  0
VERTEX
  8
1
 10
36.9502923976608
 20
13.0833333333333
  0
VERTEX
  8
1
 10
40.9502923976608
 20
12.25
  0
VERTEX
  8
1
 10
36.9502923976608
 20
11.4166666666667
  0
VERTEX
  8
1
 10
38.9502923976608
 20
11
  0
SEQEND
  8
1
  0
POLYLINE
  8
1
 66
1
  0
VERTEX
  8
1
 10
39.2502923976607
 20
6.15
  0
VERTEX
  8
1
 10
39.2502923976607
 20
7.15
  0
VERTEX
  8
1
 10
38.2502923976607
 20
9.65
  0
SEQEND
  8
1
  0
LINE
  8
1
 10
39.2502923976608
 20
8.84999999999999
 11
39.2502923976608
 21
9.84999999999999
  0
POLYLINE
  8
1
 66
1
  0
VERTEX
  8
1
 10
35.9502923976608
 20
5
  0
VERTEX
  8
1
 10
41.9502923976608
 20
5
  0
VERTEX
  8
1
 10
41.9502923976608
 20
11
  0
VERTEX
  8
1
 10
35.9502923976608
 20
11
  0
VERTEX
  8
1
 10
35.9502923976608
 20
5
  0
SEQEND
  8
1
  0
LINE
  8
1
 10
-9
 20
-13
 11
-5
 21
-13
  0
LINE
  8
1
 10
-15
 20
-13
 11
-11.4759962576612
 21
-13
  0
CIRCLE
  8
1
 10
-10.5
 20
-13
 40
1
  0
POLYLINE
  8
1
 66
1
  0
VERTEX
  8
1
 10
-11
 20
-15
  0
VERTEX
  8
1
 10
-9
 20
-13
  0
VERTEX
  8
1
 10
-11
 20
-11
  0
SEQEND
  8
1
  0
LINE
  8
1
 10
13.2928932188134
 20
6.58578643762691
 11
20.3639610306789
 21
3.75735931288072
  0
INSERT
  8
1
  2
LCA1
 10
20.3639610306789
 20
3.75735931288072
 50
-21.8014094863518
  0
LINE
  8
1
 10
17
 20
13
 11
17
 21
-3
  0
ARC
  8
1
 10
7
 20
5
 40
9
 50
340.528596800055
 51
19.4710505793386
  0
ARC
  8
1
 10
27
 20
5
 40
9
 50
160.52865870751
 51
199.47139531546
  0
POLYLINE
  8
1
 66
1
  0
VERTEX
  8
1
 10
-35
 20
7
  0
VERTEX
  8
1
 10
-43
 20
7
  0
VERTEX
  8
1
 10
-43
 20
-1
  0
VERTEX
  8
1
 10
-35
 20
-1
  0
VERTEX
  8
1
 10
-35
 20
7
  0
SEQEND
  8
1
  0
LINE
  8
1
 10
-43
 20
1
 11
-41
 21
1
  0
INSERT
  8
1
  2
LCBP1
 10
-41
 20
1
 50
0
  0
LINE
  8
1
 10
-43
 20
5
 11
-35
 21
5
  0
INSERT
  8
1
  2
LCA1
 10
-35
 20
5
 50
0
  0
LINE
  8
1
 10
-43
 20
-3
 11
-41
 21
-3
  0
INSERT
  8
1
  2
LCBP1
 10
-41
 20
-3
 50
0
  0
POLYLINE
  8
1
 66
1
  0
VERTEX
  8
1
 10
-35
 20
-1
  0
VERTEX
  8
1
 10
-43
 20
-1
  0
VERTEX
  8
1
 10
-43
 20
-9
  0
VERTEX
  8
1
 10
-35
 20
-9
  0
VERTEX
  8
1
 10
-35
 20
-1
  0
SEQEND
  8
1
  0
LINE
  8
1
 10
-35
 20
-3
 11
-43
 21
-7
  0
INSERT
  8
1
  2
LCA1
 10
-43
 20
-7
 50
-153.434948822922
  0
LINE
  8
1
 10
-39
 20
10
 11
-37
 21
10
  0
LINE
  8
1
 10
-42.5
 20
13
 11
-39.5
 21
13
  0
LINE
  8
1
 10
-40
 20
11.25
 11
-40
 21
13
  0
POLYLINE
  8
1
 66
1
  0
VERTEX
  8
1
 10
-40
 20
11.25
  0
VERTEX
  8
1
 10
-40
 20
10.75
  0
VERTEX
  8
1
 10
-41.2990381056767
 20
10
  0
VERTEX
  8
1
 10
-40
 20
9.25
  0
VERTEX
  8
1
 10
-40
 20
8.75
  0
SEQEND
  8
1
  0
LINE
  8
1
 10
-40
 20
7
 11
-40
 21
8.75
  0
LINE
  8
1
 10
-42
 20
7
 11
-42
 21
13
  0
LINE
  8
1
 10
23
 20
15
 11
25
 21
11.5358983848622
  0
LINE
  8
1
 10
27
 20
15
 11
25
 21
11.5358983848622
  0
POLYLINE
  8
1
 66
1
  0
VERTEX
  8
1
 10
25
 20
-12
  0
VERTEX
  8
1
 10
23
 20
-11.5833333333333
  0
VERTEX
  8
1
 10
27
 20
-10.75
  0
VERTEX
  8
1
 10
23
 20
-9.91666666666675
  0
VERTEX
  8
1
 10
27
 20
-9.08333333333325
  0
VERTEX
  8
1
 10
23
 20
-8.25
  0
VERTEX
  8
1
 10
27
 20
-7.41666666666675
  0
VERTEX
  8
1
 10
25
 20
-7
  0
SEQEND
  8
1
  0
LINE
  8
1
 10
23
 20
5
 11
31
 21
5
  0
INSERT
  8
1
  2
LCA1
 10
31
 20
5
 50
0
  0
POLYLINE
  8
1
 66
1
  0
VERTEX
  8
1
 10
31
 20
9
  0
VERTEX
  8
1
 10
23
 20
9
  0
VERTEX
  8
1
 10
23
 20
1
  0
VERTEX
  8
1
 10
31
 20
1
  0
VERTEX
  8
1
 10
31
 20
9
  0
SEQEND
  8
1
  0
LINE
  8
1
 10
31
 20
-3
 11
29
 21
-3
  0
INSERT
  8
1
  2
LCBP1
 10
29
 20
-3
 50
-180
  0
LINE
  8
1
 10
23
 20
-3
 11
25
 21
-3
  0
INSERT
  8
1
  2
LCBP1
 10
25
 20
-3
 50
0
  0
POLYLINE
  8
1
 66
1
  0
VERTEX
  8
1
 10
31
 20
1
  0
VERTEX
  8
1
 10
23
 20
1
  0
VERTEX
  8
1
 10
23
 20
-7
  0
VERTEX
  8
1
 10
31
 20
-7
  0
VERTEX
  8
1
 10
31
 20
1
  0
SEQEND
  8
1
  0
POLYLINE
  8
1
 66
1
  0
VERTEX
  8
1
 10
27
 20
15
  0
VERTEX
  8
1
 10
23
 20
15
  0
VERTEX
  8
1
 10
23
 20
9
  0
VERTEX
  8
1
 10
27
 20
9
  0
VERTEX
  8
1
 10
27
 20
15
  0
SEQEND
  8
1
  0
POLYLINE
  8
1
 66
1
  0
VERTEX
  8
1
 10
25
 20
-12
  0
VERTEX
  8
1
 10
23
 20
-11.5833333333333
  0
VERTEX
  8
1
 10
27
 20
-10.75
  0
VERTEX
  8
1
 10
23
 20
-9.91666666666675
  0
VERTEX
  8
1
 10
27
 20
-9.08333333333325
  0
VERTEX
  8
1
 10
23
 20
-8.25
  0
VERTEX
  8
1
 10
27
 20
-7.41666666666675
  0
VERTEX
  8
1
 10
25
 20
-7
  0
SEQEND
  8
1
  0
POLYLINE
  8
1
 66
1
  0
VERTEX
  8
1
 10
5
 20
-14
  0
VERTEX
  8
1
 10
3
 20
-13.5833333333333
  0
VERTEX
  8
1
 10
7
 20
-12.75
  0
VERTEX
  8
1
 10
3
 20
-11.9166666666667
  0
VERTEX
  8
1
 10
7
 20
-11.0833333333333
  0
VERTEX
  8
1
 10
3
 20
-10.25
  0
VERTEX
  8
1
 10
7
 20
-9.41666666666675
  0
VERTEX
  8
1
 10
5
 20
-9
  0
SEQEND
  8
1
  0
POLYLINE
  8
1
 66
1
  0
VERTEX
  8
1
 10
11
 20
7
  0
VERTEX
  8
1
 10
3
 20
7
  0
VERTEX
  8
1
 10
3
 20
-1
  0
VERTEX
  8
1
 10
11
 20
-1
  0
VERTEX
  8
1
 10
11
 20
7
  0
SEQEND
  8
1
  0
LINE
  8
1
 10
3
 20
1
 11
5
 21
1
  0
INSERT
  8
1
  2
LCBP1
 10
5
 20
1
 50
0
  0
LINE
  8
1
 10
3
 20
5
 11
11
 21
5
  0
INSERT
  8
1
  2
LCA1
 10
11
 20
5
 50
0
  0
LINE
  8
1
 10
3
 20
-3
 11
5
 21
-3
  0
INSERT
  8
1
  2
LCBP1
 10
5
 20
-3
 50
0
  0
POLYLINE
  8
1
 66
1
  0
VERTEX
  8
1
 10
11
 20
-1
  0
VERTEX
  8
1
 10
3
 20
-1
  0
VERTEX
  8
1
 10
3
 20
-9
  0
VERTEX
  8
1
 10
11
 20
-9
  0
VERTEX
  8
1
 10
11
 20
-1
  0
SEQEND
  8
1
  0
LINE
  8
1
 10
11
 20
-3
 11
3
 21
-7
  0
INSERT
  8
1
  2
LCA1
 10
3
 20
-7
 50
-153.434948822922
  0
LINE
  8
1
 10
3
 20
11
 11
7
 21
9
  0
POLYLINE
  8
1
 66
1
  0
VERTEX
  8
1
 10
7
 20
13
  0
VERTEX
  8
1
 10
3
 20
13
  0
VERTEX
  8
1
 10
3
 20
7
  0
VERTEX
  8
1
 10
7
 20
7
  0
VERTEX
  8
1
 10
7
 20
13
  0
SEQEND
  8
1
  0
LINE
  8
1
 10
10.5
 20
11
 11
10.5
 21
7
  0
LINE
  8
1
 10
11
 20
11
 11
8
 21
11
  0
LINE
  8
1
 10
8.5
 20
11
 11
8.5
 21
7
  0
LINE
  8
1
 10
7
 20
7
 11
11
 21
7
  0
POLYLINE
  8
1
 66
1
  0
VERTEX
  8
1
 10
5
 20
-14
  0
VERTEX
  8
1
 10
3
 20
-13.5833333333333
  0
VERTEX
  8
1
 10
7
 20
-12.75
  0
VERTEX
  8
1
 10
3
 20
-11.9166666666667
  0
VERTEX
  8
1
 10
7
 20
-11.0833333333333
  0
VERTEX
  8
1
 10
3
 20
-10.25
  0
VERTEX
  8
1
 10
7
 20
-9.41666666666675
  0
VERTEX
  8
1
 10
5
 20
-9
  0
SEQEND
  8
1
  0
POLYLINE
  8
1
 70
1
 66
1
 40
0.5
 41
0.5
  0
VERTEX
  8
1
 10
38.75
 20
-3
 42
1
  0
VERTEX
  8
1
 10
39.25
 20
-3
 42
1
  0
SEQEND
  8
1
  0
POLYLINE
  8
1
 66
1
  0
VERTEX
  8
1
 10
35
 20
0
  0
VERTEX
  8
1
 10
43
 20
0
  0
VERTEX
  8
1
 10
43
 20
-6
  0
VERTEX
  8
1
 10
35
 20
-6
  0
VERTEX
  8
1
 10
35
 20
0
  0
SEQEND
  8
1
  0
LINE
  8
1
 10
-17.4425978826423
 20
4.27036371433004
 11
-8.55712642134017
 21
6.72971259368521
  0
INSERT
  8
1
  2
LCA1
 10
-8.55712642134017
 20
6.72971259368521
 50
15.4711922908485
  0
POLYLINE
  8
1
 66
1
  0
VERTEX
  8
1
 10
-12.9998889119004
 20
3.0000231433541
  0
VERTEX
  8
1
 10
-10.9998889119004
 20
3.4166898100208
  0
VERTEX
  8
1
 10
-14.9998889119004
 20
4.2500231433541
  0
VERTEX
  8
1
 10
-10.9998889119004
 20
5.08335647668745
  0
VERTEX
  8
1
 10
-14.9998889119004
 20
5.9166898100208
  0
VERTEX
  8
1
 10
-10.9998889119004
 20
6.7500231433541
  0
VERTEX
  8
1
 10
-14.9998889119004
 20
7.5833564766874
  0
VERTEX
  8
1
 10
-12.9998889119004
 20
8.0000231433541
  0
SEQEND
  8
1
  0
POLYLINE
  8
1
 66
1
  0
VERTEX
  8
1
 10
-15
 20
2
  0
VERTEX
  8
1
 10
-17
 20
1
  0
VERTEX
  8
1
 10
-15
 20
0
  0
SEQEND
  8
1
  0
POLYLINE
  8
1
  6
DOT
 66
1
  0
VERTEX
  8
1
 10
-13
 20
-5
  0
VERTEX
  8
1
 10
-13
 20
-9
  0
VERTEX
  8
1
 10
-5
 20
-9
  0
VERTEX
  8
1
 10
-5
 20
-5
  0
VERTEX
  8
1
 10
-7
 20
-3
  0
SEQEND
  8
1
  0
POLYLINE
  8
1
 66
1
  0
VERTEX
  8
1
 10
-15
 20
-5
  0
VERTEX
  8
1
 10
-7
 20
-5
  0
VERTEX
  8
1
 10
-7
 20
3
  0
VERTEX
  8
1
 10
-15
 20
3
  0
VERTEX
  8
1
 10
-15
 20
-5
  0
SEQEND
  8
1
  0
LINE
  8
1
 10
-7
 20
-3
 11
-15
 21
-3
  0
INSERT
  8
1
  2
LCA1
 10
-15
 20
-3
 50
-180
  0
INSERT
  8
1
  2
LCA1R
 10
-7
 20
-3
 50
-180
  0
CIRCLE
  8
CONNECTIONS
 10
-51
 20
-3
 40
0
  0
CIRCLE
  8
CONNECTIONS
 10
-51
 20
-7
 40
0
  0
CIRCLE
  8
CONNECTIONS
 10
51
 20
-3
 40
0
  0
CIRCLE
  8
CONNECTIONS
 10
-1
 20
-23
 40
0
  0
CIRCLE
  8
CONNECTIONS
 10
39
 20
-21
 40
0
  0
CIRCLE
  8
CONNECTIONS
 10
5
 20
13
 40
0
  0
CIRCLE
  8
CONNECTIONS
 10
38.950146293257
 20
11
 40
0
  0
ENDBLK
  8
0
  0
ENDSEC
  0
SECTION
  2
ENTITIES
  0
INSERT
  8
1
  2
B5505_00991759
 10
51
 20
23
  0
ENDSEC
  0
EOF
