  0
SECTION
  2
HEADER
  9
$LIMMIN
 10
0
 20
0
  9
$LIMMAX
 10
52.5
 20
74.25
  9
$EXTMIN
 10
0
 20
31.6274169979695
  9
$EXTMAX
 10
0
 20
15.3137084989848
  0
ENDSEC
  0
SECTION
  2
TABLES
  0
TABLE
  2
LTYPE
 70
9
  0
LTYPE
  2
CONTINUOUS
 70
64
  3
Solid line
 72
65
 73
0
 40
0
  0
LTYPE
  2
DASHED
 70
64
  3
__ __ __ __ __ __ __ __ __
 72
65
 73
2
 40
0.75
 49
0.5
 49
-0.25
  0
LTYPE
  2
DOT
 70
64
  3
...........................
 72
65
 73
2
 40
0.25
 49
0
 49
-0.25
  0
LTYPE
  2
DASHDOT
 70
64
  3
__ . __ . __ . __ . __ . __ . 
 72
65
 73
4
 40
1
 49
0.5
 49
-0.25
 49
0
 49
-0.25
  0
ENDTAB
  0
TABLE
  2
LAYER
 70
10
  0
LAYER
  2
1
 70
0
 62
7
  6
CONTINUOUS
  0
LAYER
  2
CONNECTIONS
 70
0
 62
-7
  6
CONTINUOUS
  0
ENDTAB
  0
ENDSEC
  0
SECTION
  2
BLOCKS
  0
BLOCK
  8
0
  2
TRICON
 70
0
 10
0
 20
0
  0
POLYLINE
  8
1
 70
1
 66
1
 40
0.5
 41
0.5
  0
VERTEX
  8
1
 10
-0.25
 20
0
 42
1
  0
VERTEX
  8
1
 10
0.25
 20
0
 42
1
  0
SEQEND
  8
1
  0
ENDBLK
  8
0
  0
BLOCK
  8
0
  2
TRICONSMALL
 70
0
 10
0
 20
0
  0
POLYLINE
  8
1
 70
1
 66
1
 40
0.25
 41
0.25
  0
VERTEX
  8
1
 10
-0.125
 20
0
 42
1
  0
VERTEX
  8
1
 10
0.125
 20
0
 42
1
  0
SEQEND
  8
1
  0
ENDBLK
  8
0
  0
BLOCK
  8
0
  2
TRICONCIRCLE
 70
0
 10
0
 20
0
  0
CIRCLE
  8
1
 10
0
 20
0
 40
0.5
  0
ENDBLK
  8
0
  0
BLOCK
  8
0
  2
LCBP0
 70
0
 10
0
 20
0
  0
LINE
  8
1
 10
0
 20
-0.46875
 11
0
 21
0.46875
  0
ENDBLK
  8
0
  0
BLOCK
  8
0
  2
LCBP1
 70
0
 10
0
 20
0
  0
LINE
  8
1
 10
0
 20
-0.625
 11
0
 21
0.625
  0
ENDBLK
  8
0
  0
BLOCK
  8
0
  2
LCBP2
 70
0
 10
0
 20
0
  0
LINE
  8
1
 10
0
 20
-0.9375
 11
0
 21
0.9375
  0
ENDBLK
  8
0
  0
BLOCK
  8
0
  2
LCA1
 70
0
 10
0
 20
0
  0
SOLID
  8
1
 62
7 
 10
0
 20
0
 11
-1.4
 21
-0.275
 12
-1.4
 22
0.275
 13
-1.4
 23
0.275
  0
ENDBLK
  8
0
  0
BLOCK
  8
0
  2
LCA2
 70
0
 10
0
 20
0
  0
SOLID
  8
1
 62
7 
 10
0
 20
0
 11
-1.65
 21
-0.525
 12
-1.65
 22
0.525
 13
-1.65
 23
0.525
  0
ENDBLK
  8
0
  0
BLOCK
  8
0
  2
LCA3
 70
0
 10
0
 20
0
  0
SOLID
  8
1
 62
7 
 10
0
 20
0
 11
-2.15
 21
-1.15
 12
-2.15
 22
1.15
 13
-2.15
 23
1.15
  0
ENDBLK
  8
0
  0
BLOCK
  8
0
  2
LCA1R
 70
0
 10
0
 20
0
  0
SOLID
  8
1
 62
7 
 10
0
 20
0
 11
1.4
 21
-0.275
 12
1.4
 22
0.275
 13
1.4
 23
0.275
  0
ENDBLK
  8
0
  0
BLOCK
  8
0
  2
LCA2R
 70
0
 10
0
 20
0
  0
SOLID
  8
1
 62
7 
 10
0
 20
0
 11
1.65
 21
-0.525
 12
1.65
 22
0.525
 13
1.65
 23
0.525
  0
ENDBLK
  8
0
  0
BLOCK
  8
0
  2
LCA3R
 70
0
 10
0
 20
0
  0
SOLID
  8
1
 62
7 
 10
0
 20
0
 11
2.15
 21
-1.15
 12
2.15
 22
1.15
 13
2.15
 23
1.15
  0
ENDBLK
  8
0
  0
BLOCK
  8
0
  2
B2113_00991740
 70
0
 10
0
 20
0
  0
LINE
  8
1
 10
11.8137084989848
 20
2.00000000000001
 11
15.8137084989848
 21
2.00000000000001
  0
LINE
  8
1
 10
-15.8137084989848
 20
2
 11
-11.8137084989848
 21
2
  0
TEXT
  8
1
 40
2.475
 41
0.75
  1
1
  7
STANDARD
 72
2
 10
-13.8137084989848
 20
3.2375
 11
-13.8137084989848
 21
3.2375
  0
TEXT
  8
1
 40
2.475
 41
0.75
  1
2
  7
STANDARD
 10
13.8137084989848
 20
3.23750000000001
  0
LINE
  8
1
 10
-0.499999999999986
 20
2
 11
0.500000000000014
 21
2
  0
LINE
  8
1
 10
-8.15682712275629
 20
-1.65685424949238
 11
-4.15684199029434
 21
-1.65685424949238
  0
LINE
  8
1
  6
DASHED
 10
-6.15684011598957
 20
-1.65685424949238
 11
-6.15684011598957
 21
7.65685424949234
  0
POLYLINE
  8
1
 66
1
  0
VERTEX
  8
1
 10
-6.15685424949239
 20
7.65685424949235
  0
VERTEX
  8
1
 10
-11.8137084989848
 20
2
  0
VERTEX
  8
1
 10
-6.15685424949239
 20
-3.65685424949237
  0
VERTEX
  8
1
 10
-0.499999999999986
 20
2
  0
VERTEX
  8
1
 10
-6.15685424949239
 20
7.65685424949235
  0
SEQEND
  8
1
  0
LINE
  8
1
 10
-6.1568542494924
 20
-3.65685424949238
 11
-6.1568542494924
 21
-7.65685424949238
  0
LINE
  8
1
 10
4.15688137622849
 20
-1.65685424949236
 11
8.15686650869043
 21
-1.65685424949236
  0
LINE
  8
1
  6
DASHED
 10
6.15686838299521
 20
-1.65685424949236
 11
6.15686838299521
 21
7.65685424949236
  0
POLYLINE
  8
1
 66
1
  0
VERTEX
  8
1
 10
6.15685424949239
 20
7.65685424949238
  0
VERTEX
  8
1
 10
0.500000000000014
 20
2.00000000000002
  0
VERTEX
  8
1
 10
6.15685424949239
 20
-3.65685424949235
  0
VERTEX
  8
1
 10
11.8137084989848
 20
2.00000000000002
  0
VERTEX
  8
1
 10
6.15685424949239
 20
7.65685424949238
  0
SEQEND
  8
1
  0
LINE
  8
1
 10
6.15685424949237
 20
-3.65685424949236
 11
6.15685424949237
 21
-7.65685424949236
  0
CIRCLE
  8
CONNECTIONS
 10
15.8137084989848
 20
2.00000000000001
 40
0
  0
CIRCLE
  8
CONNECTIONS
 10
-15.8137084989848
 20
2
 40
0
  0
ENDBLK
  8
0
  0
ENDSEC
  0
SECTION
  2
ENTITIES
  0
INSERT
  8
1
  2
B2113_00991740
 10
15.8137084989848
 20
7.65685424949238
  0
ENDSEC
  0
EOF
