  0
SECTION
  2
HEADER
  9
$LIMMIN
 10
0
 20
0
  9
$LIMMAX
 10
52.5
 20
74.25
  9
$EXTMIN
 10
0
 20
52
  9
$EXTMAX
 10
0
 20
32
  0
ENDSEC
  0
SECTION
  2
TABLES
  0
TABLE
  2
LTYPE
 70
9
  0
LTYPE
  2
CONTINUOUS
 70
64
  3
Solid line
 72
65
 73
0
 40
0
  0
LTYPE
  2
DASHED
 70
64
  3
__ __ __ __ __ __ __ __ __
 72
65
 73
2
 40
0.75
 49
0.5
 49
-0.25
  0
LTYPE
  2
DOT
 70
64
  3
...........................
 72
65
 73
2
 40
0.25
 49
0
 49
-0.25
  0
LTYPE
  2
DASHDOT
 70
64
  3
__ . __ . __ . __ . __ . __ . 
 72
65
 73
4
 40
1
 49
0.5
 49
-0.25
 49
0
 49
-0.25
  0
ENDTAB
  0
TABLE
  2
LAYER
 70
10
  0
LAYER
  2
1
 70
0
 62
7
  6
CONTINUOUS
  0
LAYER
  2
CONNECTIONS
 70
0
 62
-7
  6
CONTINUOUS
  0
ENDTAB
  0
ENDSEC
  0
SECTION
  2
BLOCKS
  0
BLOCK
  8
0
  2
TRICON
 70
0
 10
0
 20
0
  0
POLYLINE
  8
1
 70
1
 66
1
 40
0.5
 41
0.5
  0
VERTEX
  8
1
 10
-0.25
 20
0
 42
1
  0
VERTEX
  8
1
 10
0.25
 20
0
 42
1
  0
SEQEND
  8
1
  0
ENDBLK
  8
0
  0
BLOCK
  8
0
  2
TRICONSMALL
 70
0
 10
0
 20
0
  0
POLYLINE
  8
1
 70
1
 66
1
 40
0.25
 41
0.25
  0
VERTEX
  8
1
 10
-0.125
 20
0
 42
1
  0
VERTEX
  8
1
 10
0.125
 20
0
 42
1
  0
SEQEND
  8
1
  0
ENDBLK
  8
0
  0
BLOCK
  8
0
  2
TRICONCIRCLE
 70
0
 10
0
 20
0
  0
CIRCLE
  8
1
 10
0
 20
0
 40
0.5
  0
ENDBLK
  8
0
  0
BLOCK
  8
0
  2
LCBP0
 70
0
 10
0
 20
0
  0
LINE
  8
1
 10
0
 20
-0.46875
 11
0
 21
0.46875
  0
ENDBLK
  8
0
  0
BLOCK
  8
0
  2
LCBP1
 70
0
 10
0
 20
0
  0
LINE
  8
1
 10
0
 20
-0.625
 11
0
 21
0.625
  0
ENDBLK
  8
0
  0
BLOCK
  8
0
  2
LCBP2
 70
0
 10
0
 20
0
  0
LINE
  8
1
 10
0
 20
-0.9375
 11
0
 21
0.9375
  0
ENDBLK
  8
0
  0
BLOCK
  8
0
  2
LCA1
 70
0
 10
0
 20
0
  0
SOLID
  8
1
 62
7 
 10
0
 20
0
 11
-1.4
 21
-0.275
 12
-1.4
 22
0.275
 13
-1.4
 23
0.275
  0
ENDBLK
  8
0
  0
BLOCK
  8
0
  2
LCA2
 70
0
 10
0
 20
0
  0
SOLID
  8
1
 62
7 
 10
0
 20
0
 11
-1.65
 21
-0.525
 12
-1.65
 22
0.525
 13
-1.65
 23
0.525
  0
ENDBLK
  8
0
  0
BLOCK
  8
0
  2
LCA3
 70
0
 10
0
 20
0
  0
SOLID
  8
1
 62
7 
 10
0
 20
0
 11
-2.15
 21
-1.15
 12
-2.15
 22
1.15
 13
-2.15
 23
1.15
  0
ENDBLK
  8
0
  0
BLOCK
  8
0
  2
LCA1R
 70
0
 10
0
 20
0
  0
SOLID
  8
1
 62
7 
 10
0
 20
0
 11
1.4
 21
-0.275
 12
1.4
 22
0.275
 13
1.4
 23
0.275
  0
ENDBLK
  8
0
  0
BLOCK
  8
0
  2
LCA2R
 70
0
 10
0
 20
0
  0
SOLID
  8
1
 62
7 
 10
0
 20
0
 11
1.65
 21
-0.525
 12
1.65
 22
0.525
 13
1.65
 23
0.525
  0
ENDBLK
  8
0
  0
BLOCK
  8
0
  2
LCA3R
 70
0
 10
0
 20
0
  0
SOLID
  8
1
 62
7 
 10
0
 20
0
 11
2.15
 21
-1.15
 12
2.15
 22
1.15
 13
2.15
 23
1.15
  0
ENDBLK
  8
0
  0
BLOCK
  8
0
  2
B2102_00991739
 70
0
 10
0
 20
0
  0
POLYLINE
  8
1
 66
1
  0
VERTEX
  8
1
 10
-26
 20
12
  0
VERTEX
  8
1
 10
26
 20
12
  0
VERTEX
  8
1
 10
26
 20
-12
  0
VERTEX
  8
1
 10
-26
 20
-12
  0
VERTEX
  8
1
 10
-26
 20
12
  0
SEQEND
  8
1
  0
TEXT
  8
1
 40
2.475
 41
0.75
  1
2
  7
STANDARD
 73
2
 10
0
 20
14
 11
0
 21
14
  0
LINE
  8
1
 10
10
 20
12
 11
10
 21
16
  0
TEXT
  8
1
 40
2.475
 41
0.75
  1
3
  7
STANDARD
 73
2
 10
14.9670468892562
 20
-14.8336580439249
 11
14.9670468892562
 21
-14.8336580439249
  0
TEXT
  8
1
 40
2.475
 41
0.75
  1
1
  7
STANDARD
 72
2
 73
2
 10
9.50383759385984
 20
-14.8798801921917
 11
9.50383759385984
 21
-14.8798801921917
  0
LINE
  8
1
 10
14
 20
-12
 11
14
 21
-16
  0
LINE
  8
1
 10
10
 20
-12
 11
10
 21
-16
  0
TEXT
  8
1
 40
2.475
 41
0.75
  1
12
  7
STANDARD
 72
2
 73
2
 10
-18.9690057384797
 20
-15.0647687852588
 11
-18.9690057384797
 21
-15.0647687852588
  0
LINE
  8
1
 10
-18
 20
-12
 11
-18
 21
-16
  0
LINE
  8
1
 10
10
 20
4
 11
10
 21
12
  0
LINE
  8
1
 10
-12
 20
-2
 11
-10
 21
-2
  0
LINE
  8
1
 10
14
 20
-4
 11
14
 21
-12
  0
LINE
  8
1
 10
10
 20
-4
 11
10
 21
-12
  0
LINE
  8
1
 10
-18
 20
-6
 11
-18
 21
-12
  0
LINE
  8
1
  6
DOT
 10
10
 20
-4
 11
6
 21
-8
  0
LINE
  8
1
  6
DOT
 10
6
 20
-8
 11
-22
 21
-8
  0
LINE
  8
1
  6
DOT
 10
-20
 20
-2
 11
-22
 21
-2
  0
LINE
  8
1
  6
DOT
 10
-22
 20
-2
 11
-22
 21
-8
  0
POLYLINE
  8
1
 66
1
  0
VERTEX
  8
1
 10
21
 20
-2
  0
VERTEX
  8
1
 10
20.5833333333333
 20
-4
  0
VERTEX
  8
1
 10
19.75
 20
0
  0
VERTEX
  8
1
 10
18.9166666666667
 20
-4
  0
VERTEX
  8
1
 10
18.0833333333334
 20
0
  0
VERTEX
  8
1
 10
17.25
 20
-4
  0
VERTEX
  8
1
 10
16.4166666666667
 20
0
  0
VERTEX
  8
1
 10
16
 20
-2
  0
SEQEND
  8
1
  0
POLYLINE
  8
1
 66
1
  0
VERTEX
  8
1
 10
-18
 20
7
  0
VERTEX
  8
1
 10
-20
 20
6.58333333333328
  0
VERTEX
  8
1
 10
-16
 20
5.75
  0
VERTEX
  8
1
 10
-20
 20
4.9166666666667
  0
VERTEX
  8
1
 10
-16
 20
4.08333333333337
  0
VERTEX
  8
1
 10
-20
 20
3.25
  0
VERTEX
  8
1
 10
-16
 20
2.41666666666668
  0
VERTEX
  8
1
 10
-18
 20
2
  0
SEQEND
  8
1
  0
LINE
  8
1
 10
-22.5010033034056
 20
3.5045256092035
 11
-13.4989966965944
 21
5.4954743907965
  0
INSERT
  8
1
  2
LCA1
 10
-13.4989966965944
 20
5.4954743907965
 50
12.4711922908485
  0
POLYLINE
  8
1
 66
1
  0
VERTEX
  8
1
 10
-20
 20
-6
  0
VERTEX
  8
1
 10
-12
 20
-6
  0
VERTEX
  8
1
 10
-12
 20
2
  0
VERTEX
  8
1
 10
-20
 20
2
  0
VERTEX
  8
1
 10
-20
 20
-6
  0
SEQEND
  8
1
  0
LINE
  8
1
 10
-12
 20
-4
 11
-20
 21
-4
  0
INSERT
  8
1
  2
LCA1R
 10
-12
 20
-4
 50
-180
  0
LINE
  8
1
 10
-3.99999999999306
 20
-2
 11
0
 21
-2
  0
LINE
  8
1
 10
-7.46408859296212
 20
-1.99999248164742
 11
-10
 21
-1.99999248164742
  0
LINE
  8
1
 10
-7.46408859296212
 20
7.51835257991236E-06
 11
-7.46408859296212
 21
-3.99999248164742
  0
LINE
  8
1
 10
-7.46408859296212
 20
7.51835257991236E-06
 11
-3.99998697782436
 21
-1.99999248164742
  0
LINE
  8
1
 10
-7.46408859296212
 20
-3.99999248164742
 11
-3.99998697782436
 21
-1.99999248164742
  0
LINE
  8
1
 10
10
 20
-4
 11
10
 21
-2
  0
INSERT
  8
1
  2
LCBP1
 10
10
 20
-2
 50
90
  0
POLYLINE
  8
1
 66
1
  0
VERTEX
  8
1
 10
8
 20
4
  0
VERTEX
  8
1
 10
16
 20
4
  0
VERTEX
  8
1
 10
16
 20
-4
  0
VERTEX
  8
1
 10
8
 20
-4
  0
VERTEX
  8
1
 10
8
 20
4
  0
SEQEND
  8
1
  0
LINE
  8
1
 10
10
 20
4
 11
14
 21
-4
  0
INSERT
  8
1
  2
LCA1
 10
14
 20
-4
 50
-63.434948822922
  0
TEXT
  8
1
 40
2.475
 41
0.75
  1
P1.1
  7
STANDARD
 72
2
 10
40
 20
13.2375
 11
40
 21
13.2375
  0
POLYLINE
  8
1
 66
1
  0
VERTEX
  8
1
 10
0
 20
4
  0
VERTEX
  8
1
 10
8
 20
4
  0
VERTEX
  8
1
 10
8
 20
-4
  0
VERTEX
  8
1
 10
0
 20
-4
  0
VERTEX
  8
1
 10
0
 20
4
  0
SEQEND
  8
1
  0
LINE
  8
1
 10
6
 20
-4
 11
6
 21
-2
  0
INSERT
  8
1
  2
LCBP1
 10
6
 20
-2
 50
90
  0
LINE
  8
1
 10
2
 20
-4
 11
2
 21
4
  0
INSERT
  8
1
  2
LCA1
 10
2
 20
4
 50
90
  0
CIRCLE
  8
CONNECTIONS
 10
-18
 20
-16
 40
0
  0
CIRCLE
  8
CONNECTIONS
 10
10
 20
-16
 40
0
  0
CIRCLE
  8
CONNECTIONS
 10
14
 20
-16
 40
0
  0
CIRCLE
  8
CONNECTIONS
 10
10
 20
16
 40
0
  0
CIRCLE
  8
CONNECTIONS
 10
30
 20
12
 40
0
  0
ENDBLK
  8
0
  0
ENDSEC
  0
SECTION
  2
ENTITIES
  0
INSERT
  8
1
  2
B2102_00991739
 10
26
 20
16
  0
ENDSEC
  0
EOF
