  0
SECTION
  2
HEADER
  9
$LIMMIN
 10
0
 20
0
  9
$LIMMAX
 10
52.5
 20
74.25
  9
$EXTMIN
 10
0
 20
43.2207423528035
  9
$EXTMAX
 10
0
 20
18.329628944397
  0
ENDSEC
  0
SECTION
  2
TABLES
  0
TABLE
  2
LTYPE
 70
9
  0
LTYPE
  2
CONTINUOUS
 70
64
  3
Solid line
 72
65
 73
0
 40
0
  0
LTYPE
  2
DASHED
 70
64
  3
__ __ __ __ __ __ __ __ __
 72
65
 73
2
 40
0.75
 49
0.5
 49
-0.25
  0
LTYPE
  2
DOT
 70
64
  3
...........................
 72
65
 73
2
 40
0.25
 49
0
 49
-0.25
  0
LTYPE
  2
DASHDOT
 70
64
  3
__ . __ . __ . __ . __ . __ . 
 72
65
 73
4
 40
1
 49
0.5
 49
-0.25
 49
0
 49
-0.25
  0
ENDTAB
  0
TABLE
  2
LAYER
 70
10
  0
LAYER
  2
1
 70
0
 62
7
  6
CONTINUOUS
  0
LAYER
  2
CONNECTIONS
 70
0
 62
-7
  6
CONTINUOUS
  0
ENDTAB
  0
ENDSEC
  0
SECTION
  2
BLOCKS
  0
BLOCK
  8
0
  2
TRICON
 70
0
 10
0
 20
0
  0
POLYLINE
  8
1
 70
1
 66
1
 40
0.5
 41
0.5
  0
VERTEX
  8
1
 10
-0.25
 20
0
 42
1
  0
VERTEX
  8
1
 10
0.25
 20
0
 42
1
  0
SEQEND
  8
1
  0
ENDBLK
  8
0
  0
BLOCK
  8
0
  2
TRICONSMALL
 70
0
 10
0
 20
0
  0
POLYLINE
  8
1
 70
1
 66
1
 40
0.25
 41
0.25
  0
VERTEX
  8
1
 10
-0.125
 20
0
 42
1
  0
VERTEX
  8
1
 10
0.125
 20
0
 42
1
  0
SEQEND
  8
1
  0
ENDBLK
  8
0
  0
BLOCK
  8
0
  2
TRICONCIRCLE
 70
0
 10
0
 20
0
  0
CIRCLE
  8
1
 10
0
 20
0
 40
0.5
  0
ENDBLK
  8
0
  0
BLOCK
  8
0
  2
LCBP0
 70
0
 10
0
 20
0
  0
LINE
  8
1
 10
0
 20
-0.46875
 11
0
 21
0.46875
  0
ENDBLK
  8
0
  0
BLOCK
  8
0
  2
LCBP1
 70
0
 10
0
 20
0
  0
LINE
  8
1
 10
0
 20
-0.625
 11
0
 21
0.625
  0
ENDBLK
  8
0
  0
BLOCK
  8
0
  2
LCBP2
 70
0
 10
0
 20
0
  0
LINE
  8
1
 10
0
 20
-0.9375
 11
0
 21
0.9375
  0
ENDBLK
  8
0
  0
BLOCK
  8
0
  2
LCA1
 70
0
 10
0
 20
0
  0
SOLID
  8
1
 62
7 
 10
0
 20
0
 11
-1.4
 21
-0.275
 12
-1.4
 22
0.275
 13
-1.4
 23
0.275
  0
ENDBLK
  8
0
  0
BLOCK
  8
0
  2
LCA2
 70
0
 10
0
 20
0
  0
SOLID
  8
1
 62
7 
 10
0
 20
0
 11
-1.65
 21
-0.525
 12
-1.65
 22
0.525
 13
-1.65
 23
0.525
  0
ENDBLK
  8
0
  0
BLOCK
  8
0
  2
LCA3
 70
0
 10
0
 20
0
  0
SOLID
  8
1
 62
7 
 10
0
 20
0
 11
-2.15
 21
-1.15
 12
-2.15
 22
1.15
 13
-2.15
 23
1.15
  0
ENDBLK
  8
0
  0
BLOCK
  8
0
  2
LCA1R
 70
0
 10
0
 20
0
  0
SOLID
  8
1
 62
7 
 10
0
 20
0
 11
1.4
 21
-0.275
 12
1.4
 22
0.275
 13
1.4
 23
0.275
  0
ENDBLK
  8
0
  0
BLOCK
  8
0
  2
LCA2R
 70
0
 10
0
 20
0
  0
SOLID
  8
1
 62
7 
 10
0
 20
0
 11
1.65
 21
-0.525
 12
1.65
 22
0.525
 13
1.65
 23
0.525
  0
ENDBLK
  8
0
  0
BLOCK
  8
0
  2
LCA3R
 70
0
 10
0
 20
0
  0
SOLID
  8
1
 62
7 
 10
0
 20
0
 11
2.15
 21
-1.15
 12
2.15
 22
1.15
 13
2.15
 23
1.15
  0
ENDBLK
  8
0
  0
BLOCK
  8
0
  2
B140296_00991718
 70
0
 10
0
 20
0
  0
TEXT
  8
1
 40
2.4
 41
0.75
  1
14
  7
STANDARD
 72
2
 73
2
 10
-16.2572858174642
 20
6.83518536885579
 11
-16.2572858174642
 21
6.83518536885579
  0
TEXT
  8
1
 40
2.4
 41
0.75
  1
1
  7
STANDARD
 72
2
 10
11.1755920410156
 20
-8.93704722722372
 11
11.1755920410156
 21
-8.93704722722372
  0
TEXT
  8
1
 40
2.4
 41
0.75
  1
3
  7
STANDARD
 10
14.710371017456
 20
-9.03704722722371
  0
TEXT
  8
1
 40
2.4
 41
0.75
  1
5
  7
STANDARD
 72
2
 10
6.87559204101562
 20
-8.93704722722371
 11
6.87559204101562
 21
-8.93704722722371
  0
TEXT
  8
1
 40
2.4
 41
0.75
  1
2
  7
STANDARD
 72
2
 10
14.8755920410156
 20
4.06295277277628
 11
14.8755920410156
 21
4.06295277277628
  0
TEXT
  8
1
 40
2.4
 41
0.75
  1
4
  7
STANDARD
 72
2
 10
6.55476924053565
 20
4.0351853688558
 11
6.55476924053565
 21
4.0351853688558
  0
LINE
  8
1
 10
14.6103710174561
 20
2.83518536885579
 11
14.6103710174561
 21
6.83518536885579
  0
LINE
  8
1
 10
6.61037101745605
 20
-5.16481463114421
 11
6.61037101745605
 21
-9.16481463114421
  0
LINE
  8
1
 10
6.61037101745605
 20
6.83518536885579
 11
6.61037101745605
 21
2.83518536885579
  0
LINE
  8
1
 10
10.6103710174561
 20
-5.16481463114421
 11
10.6103710174561
 21
-9.16481463114421
  0
LINE
  8
1
 10
14.6103710174561
 20
-5.16481463114421
 11
14.6103710174561
 21
-9.16481463114421
  0
LINE
  8
1
 10
-15.0967357637305
 20
-3.87192141233075
 11
-19.3393764508498
 21
0.370719274788532
  0
LINE
  8
1
 10
-17.9251628884767
 20
1.78493283716163
 11
-13.6825222013574
 21
-2.45770784995766
  0
POLYLINE
  8
1
 70
1
 66
1
 40
0.5
 41
0.5
  0
VERTEX
  8
1
 10
-19.6728368833662
 20
1.86843496307248
 42
1
  0
VERTEX
  8
1
 10
-19.1728368833662
 20
1.86843496307248
 42
1
  0
SEQEND
  8
1
  0
CIRCLE
  8
1
 10
-19.4228368833662
 20
1.86843496307248
 40
1.5
  0
CIRCLE
  8
1
 10
-14.3896289825439
 20
-3.16481463114421
 40
1
  0
ARC
  8
1
 10
-14.3896289825439
 20
-3.16481463114421
 40
1
 50
90
 51
270
  0
LINE
  8
1
 10
-14.3896289825439
 20
-2.16481463114421
 11
-13.3896289825439
 21
-2.16481463114421
  0
LINE
  8
1
 10
-13.3896289825439
 20
-4.16481463114421
 11
-14.3896289825439
 21
-4.16481463114421
  0
LINE
  8
1
 10
-7.38962898254395
 20
-4.16481463114421
 11
-13.3896289825439
 21
-4.16481463114421
  0
LINE
  8
1
 10
-13.3896289825439
 20
-2.16481463114421
 11
-7.38962898254395
 21
-2.16481463114421
  0
POLYLINE
  8
1
 66
1
  0
VERTEX
  8
1
 10
21.6103710174561
 20
-3.16481463114421
  0
VERTEX
  8
1
 10
21.1937043507893
 20
-5.16481463114421
  0
VERTEX
  8
1
 10
20.3603710174561
 20
-1.16481463114421
  0
VERTEX
  8
1
 10
19.5270376841228
 20
-5.16481463114421
  0
VERTEX
  8
1
 10
18.6937043507894
 20
-1.16481463114421
  0
VERTEX
  8
1
 10
17.8603710174561
 20
-5.16481463114421
  0
VERTEX
  8
1
 10
17.0270376841227
 20
-1.16481463114421
  0
VERTEX
  8
1
 10
16.6103710174561
 20
-3.16481463114421
  0
SEQEND
  8
1
  0
POLYLINE
  8
1
 66
1
  0
VERTEX
  8
1
 10
-7.38962898254395
 20
2.83518536885579
  0
VERTEX
  8
1
 10
4.61037101745605
 20
2.83518536885579
  0
VERTEX
  8
1
 10
4.61037101745605
 20
-5.16481463114421
  0
VERTEX
  8
1
 10
-7.38962898254395
 20
-5.16481463114421
  0
VERTEX
  8
1
 10
-7.38962898254395
 20
2.83518536885579
  0
SEQEND
  8
1
  0
LINE
  8
1
 10
-5.38962898254395
 20
-5.16481463114421
 11
-5.38962898254395
 21
-3.16481463114421
  0
INSERT
  8
1
  2
LCBP1
 10
-5.38962898254395
 20
-3.16481463114421
 50
90
  0
LINE
  8
1
 10
2.61037101745605
 20
2.83518536885579
 11
2.61037101745605
 21
-5.16481463114421
  0
INSERT
  8
1
  2
LCA1
 10
2.61037101745605
 20
-5.16481463114421
 50
-90
  0
LINE
  8
1
 10
-1.38962898254395
 20
-5.16481463114421
 11
-5.38962898254395
 21
2.83518536885579
  0
INSERT
  8
1
  2
LCA1
 10
-5.38962898254395
 20
2.83518536885579
 50
116.565051177078
  0
LINE
  8
1
 10
14.6103710174561
 20
-5.16481463114421
 11
14.6103710174561
 21
-3.16481463114421
  0
INSERT
  8
1
  2
LCBP1
 10
14.6103710174561
 20
-3.16481463114421
 50
90
  0
POLYLINE
  8
1
 66
1
  0
VERTEX
  8
1
 10
4.61037101745605
 20
2.83518536885579
  0
VERTEX
  8
1
 10
16.6103710174561
 20
2.83518536885579
  0
VERTEX
  8
1
 10
16.6103710174561
 20
-5.16481463114421
  0
VERTEX
  8
1
 10
4.61037101745605
 20
-5.16481463114421
  0
VERTEX
  8
1
 10
4.61037101745605
 20
2.83518536885579
  0
SEQEND
  8
1
  0
LINE
  8
1
 10
6.61037101745605
 20
2.83518536885579
 11
6.61037101745605
 21
-5.16481463114421
  0
INSERT
  8
1
  2
LCA1
 10
6.61037101745605
 20
-5.16481463114421
 50
-90
  0
LINE
  8
1
 10
10.6103710174561
 20
-5.16481463114421
 11
14.6103710174561
 21
2.83518536885579
  0
INSERT
  8
1
  2
LCA1
 10
14.6103710174561
 20
2.83518536885579
 50
63.434948822922
  0
CIRCLE
  8
CONNECTIONS
 10
6.61037101745605
 20
6.83518536885579
 40
0
  0
CIRCLE
  8
CONNECTIONS
 10
14.6103710174561
 20
6.83518536885579
 40
0
  0
CIRCLE
  8
CONNECTIONS
 10
14.6103710174561
 20
-9.16481463114421
 40
0
  0
CIRCLE
  8
CONNECTIONS
 10
10.6103710174561
 20
-9.16481463114421
 40
0
  0
CIRCLE
  8
CONNECTIONS
 10
6.61037101745605
 20
-9.16481463114421
 40
0
  0
ENDBLK
  8
0
  0
ENDSEC
  0
SECTION
  2
ENTITIES
  0
INSERT
  8
1
  2
B140296_00991718
 10
21.6103710174561
 20
9.16481463114421
  0
ENDSEC
  0
EOF
