  0
SECTION
  2
HEADER
  9
$LIMMIN
 10
0
 20
0
  9
$LIMMAX
 10
52.5
 20
74.25
  9
$EXTMIN
 10
0
 20
35.292805035909
  9
$EXTMAX
 10
0
 20
10.7252602577209
  0
ENDSEC
  0
SECTION
  2
TABLES
  0
TABLE
  2
LTYPE
 70
9
  0
LTYPE
  2
CONTINUOUS
 70
64
  3
Solid line
 72
65
 73
0
 40
0
  0
LTYPE
  2
DASHED
 70
64
  3
__ __ __ __ __ __ __ __ __
 72
65
 73
2
 40
0.75
 49
0.5
 49
-0.25
  0
LTYPE
  2
DOT
 70
64
  3
...........................
 72
65
 73
2
 40
0.25
 49
0
 49
-0.25
  0
LTYPE
  2
DASHDOT
 70
64
  3
__ . __ . __ . __ . __ . __ . 
 72
65
 73
4
 40
1
 49
0.5
 49
-0.25
 49
0
 49
-0.25
  0
ENDTAB
  0
TABLE
  2
LAYER
 70
10
  0
LAYER
  2
1
 70
0
 62
7
  6
CONTINUOUS
  0
LAYER
  2
CONNECTIONS
 70
0
 62
-7
  6
CONTINUOUS
  0
ENDTAB
  0
ENDSEC
  0
SECTION
  2
BLOCKS
  0
BLOCK
  8
0
  2
TRICON
 70
0
 10
0
 20
0
  0
POLYLINE
  8
1
 70
1
 66
1
 40
0.5
 41
0.5
  0
VERTEX
  8
1
 10
-0.25
 20
0
 42
1
  0
VERTEX
  8
1
 10
0.25
 20
0
 42
1
  0
SEQEND
  8
1
  0
ENDBLK
  8
0
  0
BLOCK
  8
0
  2
TRICONSMALL
 70
0
 10
0
 20
0
  0
POLYLINE
  8
1
 70
1
 66
1
 40
0.25
 41
0.25
  0
VERTEX
  8
1
 10
-0.125
 20
0
 42
1
  0
VERTEX
  8
1
 10
0.125
 20
0
 42
1
  0
SEQEND
  8
1
  0
ENDBLK
  8
0
  0
BLOCK
  8
0
  2
TRICONCIRCLE
 70
0
 10
0
 20
0
  0
CIRCLE
  8
1
 10
0
 20
0
 40
0.5
  0
ENDBLK
  8
0
  0
BLOCK
  8
0
  2
LCBP0
 70
0
 10
0
 20
0
  0
LINE
  8
1
 10
0
 20
-0.46875
 11
0
 21
0.46875
  0
ENDBLK
  8
0
  0
BLOCK
  8
0
  2
LCBP1
 70
0
 10
0
 20
0
  0
LINE
  8
1
 10
0
 20
-0.625
 11
0
 21
0.625
  0
ENDBLK
  8
0
  0
BLOCK
  8
0
  2
LCBP2
 70
0
 10
0
 20
0
  0
LINE
  8
1
 10
0
 20
-0.9375
 11
0
 21
0.9375
  0
ENDBLK
  8
0
  0
BLOCK
  8
0
  2
LCA1
 70
0
 10
0
 20
0
  0
SOLID
  8
1
 62
7 
 10
0
 20
0
 11
-1.4
 21
-0.275
 12
-1.4
 22
0.275
 13
-1.4
 23
0.275
  0
ENDBLK
  8
0
  0
BLOCK
  8
0
  2
LCA2
 70
0
 10
0
 20
0
  0
SOLID
  8
1
 62
7 
 10
0
 20
0
 11
-1.65
 21
-0.525
 12
-1.65
 22
0.525
 13
-1.65
 23
0.525
  0
ENDBLK
  8
0
  0
BLOCK
  8
0
  2
LCA3
 70
0
 10
0
 20
0
  0
SOLID
  8
1
 62
7 
 10
0
 20
0
 11
-2.15
 21
-1.15
 12
-2.15
 22
1.15
 13
-2.15
 23
1.15
  0
ENDBLK
  8
0
  0
BLOCK
  8
0
  2
LCA1R
 70
0
 10
0
 20
0
  0
SOLID
  8
1
 62
7 
 10
0
 20
0
 11
1.4
 21
-0.275
 12
1.4
 22
0.275
 13
1.4
 23
0.275
  0
ENDBLK
  8
0
  0
BLOCK
  8
0
  2
LCA2R
 70
0
 10
0
 20
0
  0
SOLID
  8
1
 62
7 
 10
0
 20
0
 11
1.65
 21
-0.525
 12
1.65
 22
0.525
 13
1.65
 23
0.525
  0
ENDBLK
  8
0
  0
BLOCK
  8
0
  2
LCA3R
 70
0
 10
0
 20
0
  0
SOLID
  8
1
 62
7 
 10
0
 20
0
 11
2.15
 21
-1.15
 12
2.15
 22
1.15
 13
2.15
 23
1.15
  0
ENDBLK
  8
0
  0
BLOCK
  8
0
  2
B2815_00991714
 70
0
 10
0
 20
0
  0
POLYLINE
  8
1
 66
1
  0
VERTEX
  8
1
 10
-17.6464022795359
 20
5.36263012886048
  0
VERTEX
  8
1
 10
-7.64640227953593
 20
5.36263012886048
  0
VERTEX
  8
1
 10
-7.64640227953593
 20
-4.63736987113953
  0
VERTEX
  8
1
 10
-17.6464022795359
 20
-4.63736987113953
  0
VERTEX
  8
1
 10
-17.6464022795359
 20
5.36263012886048
  0
SEQEND
  8
1
  0
TEXT
  8
1
 40
1.8
 41
0.75
  1
~/+/-
  7
STANDARD
 10
10.8366889158885
 20
-0.462630128860474
  0
TEXT
  8
1
 40
1.8
 41
0.75
  1
~/-/+
  7
STANDARD
 10
10.8366889158885
 20
-4.46263012886047
  0
TEXT
  8
1
 40
1.8
 41
0.75
  1
BK
  7
STANDARD
 10
-2.64640227953593
 20
-3.18789038658142
  0
TEXT
  8
1
 40
1.8
 41
0.75
  1
4
  7
STANDARD
 10
-7.64640227953593
 20
-3.18789038658142
  0
TEXT
  8
1
 40
1.8
 41
0.75
  1
3
  7
STANDARD
 10
-7.64640227953593
 20
0.812109613418579
  0
TEXT
  8
1
 40
1.8
 41
0.75
  1
BK
  7
STANDARD
 10
-2.64640227953593
 20
0.812109613418579
  0
LINE
  8
1
 10
-11.1464022795359
 20
0.362630128860474
 11
-10.6464022795359
 21
0.362630128860474
  0
LINE
  8
1
 10
-15.1464022795359
 20
0.362630128860474
 11
-15.6464022795359
 21
0.362630128860474
  0
ARC
  8
1
 10
-11.6464022795359
 20
0.362630128860474
 40
0.5
 50
360
 51
180
  0
ARC
  8
1
 10
-12.6464022795359
 20
0.362630128860474
 40
0.5
 50
360
 51
180
  0
ARC
  8
1
 10
-13.6464022795359
 20
0.362630128860474
 40
0.5
 50
360
 51
180
  0
ARC
  8
1
 10
-14.6464022795359
 20
0.362630128860474
 40
0.5
 50
360
 51
180
  0
LINE
  8
1
  6
DOT
 10
-11.6464022795359
 20
-1.63736987113953
 11
-10.0463947597425
 21
-1.63736987113953
  0
LINE
  8
1
 10
-13.8464022795359
 20
-0.837369871139524
 11
-13.8464022795359
 21
-2.43736987113953
  0
LINE
  8
1
 10
-12.4464022795359
 20
-0.837369871139524
 11
-12.4464022795359
 21
-2.43736987113953
  0
POLYLINE
  8
1
 66
1
  0
VERTEX
  8
1
 10
-13.1464022795359
 20
-0.137369871139526
  0
VERTEX
  8
1
 10
-14.6464022795359
 20
-1.63736987113953
  0
VERTEX
  8
1
 10
-13.1464022795359
 20
-3.13736987113953
  0
VERTEX
  8
1
 10
-11.6464022795359
 20
-1.63736987113953
  0
VERTEX
  8
1
 10
-13.1464022795359
 20
-0.137369871139526
  0
SEQEND
  8
1
  0
LINE
  8
1
 10
-7.64640227953593
 20
-3.63736987113953
 11
-4.64640227953593
 21
-3.63736987113953
  0
LINE
  8
1
 10
-7.64640227953593
 20
0.362630128860474
 11
-4.64640227953593
 21
0.362630128860474
  0
SOLID
  8
1
 10
-4.64640227953593
 20
-3.38736987113953
 11
-3.14640227953593
 21
-3.38736987113953
 12
-4.64640227953593
 22
-3.88736987113953
 13
-3.14640227953593
 23
-3.88736987113953
  0
SOLID
  8
1
 10
-3.14640227953593
 20
-3.88736987113953
 11
-4.64640227953593
 21
-3.88736987113953
 12
-4.64640227953593
 22
-3.88736987113953
 13
-4.64640227953593
 23
-3.38736987113953
  0
SOLID
  8
1
 10
-4.64640227953593
 20
0.612630128860474
 11
-3.14640227953593
 21
0.612630128860474
 12
-4.64640227953593
 22
0.112630128860474
 13
-3.14640227953593
 23
0.112630128860474
  0
SOLID
  8
1
 10
-3.14640227953593
 20
0.112630128860474
 11
-4.64640227953593
 21
0.112630128860474
 12
-4.64640227953593
 22
0.112630128860474
 13
-4.64640227953593
 23
0.612630128860474
  0
LINE
  8
1
 10
-2.64640227953593
 20
-3.63736987113953
 11
-1.64640227953593
 21
-3.63736987113953
  0
ARC
  8
1
 10
-3.64640227953593
 20
-3.63736987113953
 40
1
 50
270
 51
90
  0
LINE
  8
1
 10
-2.64640227953593
 20
0.362630128860474
 11
-1.64640227953593
 21
0.362630128860474
  0
ARC
  8
1
 10
-3.64640227953593
 20
0.362630128860474
 40
1
 50
270
 51
90
  0
LINE
  8
1
 10
1.35359772046407
 20
-3.63736987113953
 11
-2.14640227953593
 21
-3.63736987113953
  0
LINE
  8
1
 10
1.35359772046407
 20
0.362630128860474
 11
-2.14640227953593
 21
0.362630128860474
  0
LINE
  8
1
 10
5.35359772046407
 20
-3.63736987113953
 11
10.3535977204641
 21
-3.63736987113953
  0
LINE
  8
1
 10
5.35359772046407
 20
0.362630128860474
 11
10.3535977204641
 21
0.362630128860474
  0
TEXT
  8
1
 40
1.125
 41
0.75
  1
L
  7
STANDARD
 72
1
 10
4.5670637289683
 20
1.26855476697286
 11
4.5670637289683
 21
1.26855476697286
  0
TEXT
  8
1
 40
1.8
 41
0.75
  1
R
  7
STANDARD
 72
1
 10
2.85359772046407
 20
1.26263012886047
 11
2.85359772046407
 21
1.26263012886047
  0
POLYLINE
  8
1
 66
1
  0
VERTEX
  8
1
 10
1.35359772046407
 20
0.862630128860474
  0
VERTEX
  8
1
 10
5.35359772046407
 20
0.862630128860474
  0
VERTEX
  8
1
 10
5.35359772046407
 20
-0.137369871139526
  0
VERTEX
  8
1
 10
1.35359772046407
 20
-0.137369871139526
  0
VERTEX
  8
1
 10
1.35359772046407
 20
0.862630128860474
  0
SEQEND
  8
1
  0
TEXT
  8
1
 40
1.125
 41
0.75
  1
L
  7
STANDARD
 72
1
 10
4.5670637289683
 20
-2.73144523302714
 11
4.5670637289683
 21
-2.73144523302714
  0
TEXT
  8
1
 40
1.8
 41
0.75
  1
R
  7
STANDARD
 72
1
 10
2.85359772046407
 20
-2.73736987113953
 11
2.85359772046407
 21
-2.73736987113953
  0
POLYLINE
  8
1
 66
1
  0
VERTEX
  8
1
 10
1.35359772046407
 20
-3.13736987113953
  0
VERTEX
  8
1
 10
5.35359772046407
 20
-3.13736987113953
  0
VERTEX
  8
1
 10
5.35359772046407
 20
-4.13736987113953
  0
VERTEX
  8
1
 10
1.35359772046407
 20
-4.13736987113953
  0
VERTEX
  8
1
 10
1.35359772046407
 20
-3.13736987113953
  0
SEQEND
  8
1
  0
LINE
  8
1
 10
-9.64640227953593
 20
-3.63736987113953
 11
-7.64640227953593
 21
-3.63736987113953
  0
LINE
  8
1
 10
-9.64640227953593
 20
0.362630128860474
 11
-7.64640227953593
 21
0.362630128860474
  0
LINE
  8
1
 10
-10.6464022795359
 20
-0.137369871139526
 11
-9.64640227953593
 21
-2.63736987113953
  0
LINE
  8
1
 10
-9.64640227953593
 20
-0.637369871139526
 11
-9.64640227953593
 21
0.362630128860474
  0
LINE
  8
1
 10
-9.64640227953593
 20
-2.63736987113953
 11
-9.64640227953593
 21
-3.63736987113953
  0
ENDBLK
  8
0
  0
ENDSEC
  0
SECTION
  2
ENTITIES
  0
INSERT
  8
1
  2
B2815_00991714
 10
17.6464022795359
 20
5.36263012886047
  0
ENDSEC
  0
EOF
