  0
SECTION
  2
HEADER
  9
$LIMMIN
 10
0
 20
0
  9
$LIMMAX
 10
52.5
 20
74.25
  9
$EXTMIN
 10
0
 20
29.0969324111938
  9
$EXTMAX
 10
0
 20
12.4505202770233
  0
ENDSEC
  0
SECTION
  2
TABLES
  0
TABLE
  2
LTYPE
 70
9
  0
LTYPE
  2
CONTINUOUS
 70
64
  3
Solid line
 72
65
 73
0
 40
0
  0
LTYPE
  2
DASHED
 70
64
  3
__ __ __ __ __ __ __ __ __
 72
65
 73
2
 40
0.75
 49
0.5
 49
-0.25
  0
LTYPE
  2
DOT
 70
64
  3
...........................
 72
65
 73
2
 40
0.25
 49
0
 49
-0.25
  0
LTYPE
  2
DASHDOT
 70
64
  3
__ . __ . __ . __ . __ . __ . 
 72
65
 73
4
 40
1
 49
0.5
 49
-0.25
 49
0
 49
-0.25
  0
ENDTAB
  0
TABLE
  2
LAYER
 70
10
  0
LAYER
  2
1
 70
0
 62
7
  6
CONTINUOUS
  0
LAYER
  2
CONNECTIONS
 70
0
 62
-7
  6
CONTINUOUS
  0
ENDTAB
  0
ENDSEC
  0
SECTION
  2
BLOCKS
  0
BLOCK
  8
0
  2
TRICON
 70
0
 10
0
 20
0
  0
POLYLINE
  8
1
 70
1
 66
1
 40
0.5
 41
0.5
  0
VERTEX
  8
1
 10
-0.25
 20
0
 42
1
  0
VERTEX
  8
1
 10
0.25
 20
0
 42
1
  0
SEQEND
  8
1
  0
ENDBLK
  8
0
  0
BLOCK
  8
0
  2
TRICONSMALL
 70
0
 10
0
 20
0
  0
POLYLINE
  8
1
 70
1
 66
1
 40
0.25
 41
0.25
  0
VERTEX
  8
1
 10
-0.125
 20
0
 42
1
  0
VERTEX
  8
1
 10
0.125
 20
0
 42
1
  0
SEQEND
  8
1
  0
ENDBLK
  8
0
  0
BLOCK
  8
0
  2
TRICONCIRCLE
 70
0
 10
0
 20
0
  0
CIRCLE
  8
1
 10
0
 20
0
 40
0.5
  0
ENDBLK
  8
0
  0
BLOCK
  8
0
  2
LCBP0
 70
0
 10
0
 20
0
  0
LINE
  8
1
 10
0
 20
-0.46875
 11
0
 21
0.46875
  0
ENDBLK
  8
0
  0
BLOCK
  8
0
  2
LCBP1
 70
0
 10
0
 20
0
  0
LINE
  8
1
 10
0
 20
-0.625
 11
0
 21
0.625
  0
ENDBLK
  8
0
  0
BLOCK
  8
0
  2
LCBP2
 70
0
 10
0
 20
0
  0
LINE
  8
1
 10
0
 20
-0.9375
 11
0
 21
0.9375
  0
ENDBLK
  8
0
  0
BLOCK
  8
0
  2
LCA1
 70
0
 10
0
 20
0
  0
SOLID
  8
1
 62
7 
 10
0
 20
0
 11
-1.4
 21
-0.275
 12
-1.4
 22
0.275
 13
-1.4
 23
0.275
  0
ENDBLK
  8
0
  0
BLOCK
  8
0
  2
LCA2
 70
0
 10
0
 20
0
  0
SOLID
  8
1
 62
7 
 10
0
 20
0
 11
-1.65
 21
-0.525
 12
-1.65
 22
0.525
 13
-1.65
 23
0.525
  0
ENDBLK
  8
0
  0
BLOCK
  8
0
  2
LCA3
 70
0
 10
0
 20
0
  0
SOLID
  8
1
 62
7 
 10
0
 20
0
 11
-2.15
 21
-1.15
 12
-2.15
 22
1.15
 13
-2.15
 23
1.15
  0
ENDBLK
  8
0
  0
BLOCK
  8
0
  2
LCA1R
 70
0
 10
0
 20
0
  0
SOLID
  8
1
 62
7 
 10
0
 20
0
 11
1.4
 21
-0.275
 12
1.4
 22
0.275
 13
1.4
 23
0.275
  0
ENDBLK
  8
0
  0
BLOCK
  8
0
  2
LCA2R
 70
0
 10
0
 20
0
  0
SOLID
  8
1
 62
7 
 10
0
 20
0
 11
1.65
 21
-0.525
 12
1.65
 22
0.525
 13
1.65
 23
0.525
  0
ENDBLK
  8
0
  0
BLOCK
  8
0
  2
LCA3R
 70
0
 10
0
 20
0
  0
SOLID
  8
1
 62
7 
 10
0
 20
0
 11
2.15
 21
-1.15
 12
2.15
 22
1.15
 13
2.15
 23
1.15
  0
ENDBLK
  8
0
  0
BLOCK
  8
0
  2
B2767_00991701
 70
0
 10
0
 20
0
  0
POLYLINE
  8
1
 66
1
  0
VERTEX
  8
1
 10
-14.5484662055969
 20
4.22526057561238
  0
VERTEX
  8
1
 10
-4.54846620559692
 20
4.22526057561238
  0
VERTEX
  8
1
 10
-4.54846620559692
 20
-5.77473942438761
  0
VERTEX
  8
1
 10
-14.5484662055969
 20
-5.77473942438761
  0
VERTEX
  8
1
 10
-14.5484662055969
 20
4.22526057561238
  0
SEQEND
  8
1
  0
TEXT
  8
1
 40
1.8
 41
0.75
  1
PNP
  7
STANDARD
 72
1
 73
3
 10
-9.54846620559692
 20
-2.77421890894572
 11
-9.54846620559692
 21
-2.77421890894572
  0
TEXT
  8
1
 40
1.8
 41
0.75
  1
-
  7
STANDARD
 10
11.9515337944031
 20
-5.32525993982951
  0
TEXT
  8
1
 40
1.8
 41
0.75
  1
+
  7
STANDARD
 10
11.9515337944031
 20
2.12526057561239
  0
TEXT
  8
1
 40
1.8
 41
0.75
  1
BU
  7
STANDARD
 10
0.451533794403076
 20
-4.32525993982951
  0
TEXT
  8
1
 40
1.8
 41
0.75
  1
3
  7
STANDARD
 10
-4.54846620559692
 20
-4.32525993982951
  0
TEXT
  8
1
 40
1.8
 41
0.75
  1
BK
  7
STANDARD
 10
0.451533794403076
 20
-0.325259939829508
  0
TEXT
  8
1
 40
1.8
 41
0.75
  1
BN
  7
STANDARD
 10
0.451533794403076
 20
3.67474006017049
  0
TEXT
  8
1
 40
1.8
 41
0.75
  1
4
  7
STANDARD
 10
-4.54846620559692
 20
-0.325259939829508
  0
TEXT
  8
1
 40
1.8
 41
0.75
  1
1
  7
STANDARD
 10
-4.54846620559692
 20
3.67474006017049
  0
LINE
  8
1
 10
-8.04846620559692
 20
-1.27473942438761
 11
-7.54846620559692
 21
-1.27473942438761
  0
LINE
  8
1
 10
-12.0484662055969
 20
-1.27473942438761
 11
-12.5484662055969
 21
-1.27473942438761
  0
ARC
  8
1
 10
-8.54846620559692
 20
-1.27473942438761
 40
0.5
 50
360
 51
180
  0
ARC
  8
1
 10
-9.54846620559692
 20
-1.27473942438761
 40
0.5
 50
360
 51
180
  0
ARC
  8
1
 10
-10.5484662055969
 20
-1.27473942438761
 40
0.5
 50
360
 51
180
  0
ARC
  8
1
 10
-11.5484662055969
 20
-1.27473942438761
 40
0.5
 50
360
 51
180
  0
LINE
  8
1
  6
DOT
 10
-8.54846620559692
 20
1.22526057561239
 11
-7.04846620559692
 21
1.22526057561239
  0
LINE
  8
1
 10
-10.7484662055969
 20
2.02526057561239
 11
-10.7484662055969
 21
0.425260575612384
  0
LINE
  8
1
 10
-9.34846620559692
 20
2.02526057561239
 11
-9.34846620559692
 21
0.425260575612384
  0
POLYLINE
  8
1
 66
1
  0
VERTEX
  8
1
 10
-10.0484662055969
 20
2.72526057561238
  0
VERTEX
  8
1
 10
-11.5484662055969
 20
1.22526057561239
  0
VERTEX
  8
1
 10
-10.0484662055969
 20
-0.274739424387613
  0
VERTEX
  8
1
 10
-8.54846620559692
 20
1.22526057561239
  0
VERTEX
  8
1
 10
-10.0484662055969
 20
2.72526057561238
  0
SEQEND
  8
1
  0
LINE
  8
1
 10
-4.54846620559692
 20
-4.77473942438761
 11
-1.54846620559692
 21
-4.77473942438761
  0
LINE
  8
1
 10
-4.54846620559692
 20
-0.774739424387614
 11
-1.54846620559692
 21
-0.774739424387614
  0
LINE
  8
1
 10
-4.54846620559692
 20
3.22526057561239
 11
-1.54846620559692
 21
3.22526057561239
  0
SOLID
  8
1
 10
-1.54846620559692
 20
-4.52473942438761
 11
-0.0484662055969238
 21
-4.52473942438761
 12
-1.54846620559692
 22
-5.02473942438761
 13
-0.0484662055969238
 23
-5.02473942438761
  0
SOLID
  8
1
 10
-0.0484662055969238
 20
-5.02473942438761
 11
-1.54846620559692
 21
-5.02473942438761
 12
-1.54846620559692
 22
-5.02473942438761
 13
-1.54846620559692
 23
-4.52473942438761
  0
SOLID
  8
1
 10
-1.54846620559692
 20
-0.524739424387614
 11
-0.0484662055969238
 21
-0.524739424387614
 12
-1.54846620559692
 22
-1.02473942438761
 13
-0.0484662055969238
 23
-1.02473942438761
  0
SOLID
  8
1
 10
-0.0484662055969238
 20
-1.02473942438761
 11
-1.54846620559692
 21
-1.02473942438761
 12
-1.54846620559692
 22
-1.02473942438761
 13
-1.54846620559692
 23
-0.524739424387614
  0
SOLID
  8
1
 10
-1.54846620559692
 20
3.47526057561239
 11
-0.0484662055969238
 21
3.47526057561239
 12
-1.54846620559692
 22
2.97526057561239
 13
-0.0484662055969238
 23
2.97526057561239
  0
SOLID
  8
1
 10
-0.0484662055969238
 20
2.97526057561239
 11
-1.54846620559692
 21
2.97526057561239
 12
-1.54846620559692
 22
2.97526057561239
 13
-1.54846620559692
 23
3.47526057561239
  0
LINE
  8
1
 10
0.451533794403076
 20
3.22526057561239
 11
1.45153379440308
 21
3.22526057561239
  0
ARC
  8
1
 10
-0.548466205596924
 20
3.22526057561239
 40
1
 50
270
 51
90
  0
LINE
  8
1
 10
0.451533794403076
 20
-4.77473942438761
 11
1.45153379440308
 21
-4.77473942438761
  0
ARC
  8
1
 10
-0.548466205596924
 20
-4.77473942438761
 40
1
 50
270
 51
90
  0
LINE
  8
1
 10
0.451533794403076
 20
-0.774739424387614
 11
1.45153379440308
 21
-0.774739424387614
  0
ARC
  8
1
 10
-0.548466205596924
 20
-0.774739424387614
 40
1
 50
270
 51
90
  0
LINE
  8
1
 10
9.45153379440308
 20
-4.77473942438761
 11
11.4515337944031
 21
-4.77473942438761
  0
LINE
  8
1
 10
-1.04846620559692
 20
3.22526057561239
 11
11.4515337944031
 21
3.22526057561239
  0
LINE
  8
1
 10
-1.04846620559692
 20
-4.77473942438761
 11
8.75153379440308
 21
-4.77473942438761
  0
LINE
  8
1
 10
-1.04846620559692
 20
-0.774739424387614
 11
4.05153379440307
 21
-0.774739424387614
  0
LINE
  8
1
 10
9.05153379440307
 20
-0.774739424387614
 11
9.05153379440307
 21
-4.52473942438761
  0
CIRCLE
  8
1
 10
9.05153379440307
 20
-4.77473942438761
 40
0.25
  0
LINE
  8
1
 10
8.05153379440307
 20
-0.774739424387614
 11
9.05153379440307
 21
-0.774739424387614
  0
POLYLINE
  8
1
 66
1
  0
VERTEX
  8
1
 10
4.05153379440307
 20
-0.274739424387613
  0
VERTEX
  8
1
 10
8.05153379440307
 20
-0.274739424387613
  0
VERTEX
  8
1
 10
8.05153379440307
 20
-1.27473942438761
  0
VERTEX
  8
1
 10
4.05153379440307
 20
-1.27473942438761
  0
VERTEX
  8
1
 10
4.05153379440307
 20
-0.274739424387613
  0
SEQEND
  8
1
  0
TEXT
  8
1
 40
1.125
 41
0.75
  1
L
  7
STANDARD
 72
1
 10
7.26499980290731
 20
0.131185213724772
 11
7.26499980290731
 21
0.131185213724772
  0
TEXT
  8
1
 40
1.8
 41
0.75
  1
R
  7
STANDARD
 72
1
 10
5.55153379440307
 20
0.125260575612386
 11
5.55153379440307
 21
0.125260575612386
  0
LINE
  8
1
 10
-6.54846620559692
 20
-0.774739424387614
 11
-4.54846620559692
 21
-0.774739424387614
  0
LINE
  8
1
 10
-6.54846620559692
 20
3.22526057561239
 11
-4.54846620559692
 21
3.22526057561239
  0
LINE
  8
1
 10
-7.54846620559692
 20
2.72526057561239
 11
-6.54846620559692
 21
0.225260575612386
  0
LINE
  8
1
 10
-6.54846620559692
 20
2.22526057561239
 11
-6.54846620559692
 21
3.22526057561239
  0
LINE
  8
1
 10
-6.54846620559692
 20
0.225260575612386
 11
-6.54846620559692
 21
-0.774739424387614
  0
ENDBLK
  8
0
  0
ENDSEC
  0
SECTION
  2
ENTITIES
  0
INSERT
  8
1
  2
B2767_00991701
 10
14.5484662055969
 20
6.22525993982951
  0
ENDSEC
  0
EOF
