  0
SECTION
  2
HEADER
  9
$LIMMIN
 10
0
 20
0
  9
$LIMMAX
 10
52.5
 20
74.25
  9
$EXTMIN
 10
0
 20
48
  9
$EXTMAX
 10
0
 20
38
  0
ENDSEC
  0
SECTION
  2
TABLES
  0
TABLE
  2
LTYPE
 70
9
  0
LTYPE
  2
CONTINUOUS
 70
64
  3
Solid line
 72
65
 73
0
 40
0
  0
LTYPE
  2
DASHED
 70
64
  3
__ __ __ __ __ __ __ __ __
 72
65
 73
2
 40
0.75
 49
0.5
 49
-0.25
  0
LTYPE
  2
DOT
 70
64
  3
...........................
 72
65
 73
2
 40
0.25
 49
0
 49
-0.25
  0
LTYPE
  2
DASHDOT
 70
64
  3
__ . __ . __ . __ . __ . __ . 
 72
65
 73
4
 40
1
 49
0.5
 49
-0.25
 49
0
 49
-0.25
  0
ENDTAB
  0
TABLE
  2
LAYER
 70
10
  0
LAYER
  2
1
 70
0
 62
7
  6
CONTINUOUS
  0
LAYER
  2
CONNECTIONS
 70
0
 62
-7
  6
CONTINUOUS
  0
ENDTAB
  0
ENDSEC
  0
SECTION
  2
BLOCKS
  0
BLOCK
  8
0
  2
TRICON
 70
0
 10
0
 20
0
  0
POLYLINE
  8
1
 70
1
 66
1
 40
0.5
 41
0.5
  0
VERTEX
  8
1
 10
-0.25
 20
0
 42
1
  0
VERTEX
  8
1
 10
0.25
 20
0
 42
1
  0
SEQEND
  8
1
  0
ENDBLK
  8
0
  0
BLOCK
  8
0
  2
TRICONSMALL
 70
0
 10
0
 20
0
  0
POLYLINE
  8
1
 70
1
 66
1
 40
0.25
 41
0.25
  0
VERTEX
  8
1
 10
-0.125
 20
0
 42
1
  0
VERTEX
  8
1
 10
0.125
 20
0
 42
1
  0
SEQEND
  8
1
  0
ENDBLK
  8
0
  0
BLOCK
  8
0
  2
TRICONCIRCLE
 70
0
 10
0
 20
0
  0
CIRCLE
  8
1
 10
0
 20
0
 40
0.5
  0
ENDBLK
  8
0
  0
BLOCK
  8
0
  2
LCBP0
 70
0
 10
0
 20
0
  0
LINE
  8
1
 10
0
 20
-0.46875
 11
0
 21
0.46875
  0
ENDBLK
  8
0
  0
BLOCK
  8
0
  2
LCBP1
 70
0
 10
0
 20
0
  0
LINE
  8
1
 10
0
 20
-0.625
 11
0
 21
0.625
  0
ENDBLK
  8
0
  0
BLOCK
  8
0
  2
LCBP2
 70
0
 10
0
 20
0
  0
LINE
  8
1
 10
0
 20
-0.9375
 11
0
 21
0.9375
  0
ENDBLK
  8
0
  0
BLOCK
  8
0
  2
LCA1
 70
0
 10
0
 20
0
  0
SOLID
  8
1
 62
7 
 10
0
 20
0
 11
-1.4
 21
-0.275
 12
-1.4
 22
0.275
 13
-1.4
 23
0.275
  0
ENDBLK
  8
0
  0
BLOCK
  8
0
  2
LCA2
 70
0
 10
0
 20
0
  0
SOLID
  8
1
 62
7 
 10
0
 20
0
 11
-1.65
 21
-0.525
 12
-1.65
 22
0.525
 13
-1.65
 23
0.525
  0
ENDBLK
  8
0
  0
BLOCK
  8
0
  2
LCA3
 70
0
 10
0
 20
0
  0
SOLID
  8
1
 62
7 
 10
0
 20
0
 11
-2.15
 21
-1.15
 12
-2.15
 22
1.15
 13
-2.15
 23
1.15
  0
ENDBLK
  8
0
  0
BLOCK
  8
0
  2
LCA1R
 70
0
 10
0
 20
0
  0
SOLID
  8
1
 62
7 
 10
0
 20
0
 11
1.4
 21
-0.275
 12
1.4
 22
0.275
 13
1.4
 23
0.275
  0
ENDBLK
  8
0
  0
BLOCK
  8
0
  2
LCA2R
 70
0
 10
0
 20
0
  0
SOLID
  8
1
 62
7 
 10
0
 20
0
 11
1.65
 21
-0.525
 12
1.65
 22
0.525
 13
1.65
 23
0.525
  0
ENDBLK
  8
0
  0
BLOCK
  8
0
  2
LCA3R
 70
0
 10
0
 20
0
  0
SOLID
  8
1
 62
7 
 10
0
 20
0
 11
2.15
 21
-1.15
 12
2.15
 22
1.15
 13
2.15
 23
1.15
  0
ENDBLK
  8
0
  0
BLOCK
  8
0
  2
B2618_00991587
 70
0
 10
0
 20
0
  0
POLYLINE
  8
1
  6
DASHDOT
 66
1
  0
VERTEX
  8
1
 10
-20
 20
19
  0
VERTEX
  8
1
 10
20
 20
19
  0
VERTEX
  8
1
 10
20
 20
-15
  0
VERTEX
  8
1
 10
-20
 20
-15
  0
VERTEX
  8
1
 10
-20
 20
19
  0
SEQEND
  8
1
  0
LINE
  8
1
 10
-10
 20
-15
 11
-10
 21
-19
  0
LINE
  8
1
 10
-24
 20
1
 11
-20
 21
1
  0
LINE
  8
1
 10
20
 20
1
 11
24
 21
1
  0
TEXT
  8
1
 40
2.475
 41
0.75
  1
1
  7
STANDARD
 72
2
 10
-20.4655974188913
 20
2.88445042088071
 11
-20.4655974188913
 21
2.88445042088071
  0
TEXT
  8
1
 40
2.475
 41
0.75
  1
2
  7
STANDARD
 73
2
 10
21.1584699453552
 20
4.01639344262298
 11
21.1584699453552
 21
4.01639344262298
  0
LINE
  8
1
 10
8
 20
1
 11
20
 21
1
  0
LINE
  8
1
 10
-20
 20
1
 11
-15.6486042692939
 21
1.01532567049808
  0
LINE
  8
1
 10
-10
 20
-4.68203497615264
 11
-10
 21
-15
  0
POLYLINE
  8
1
 66
1
  0
VERTEX
  8
1
 10
-2
 20
1
  0
VERTEX
  8
1
 10
-2
 20
-9
  0
VERTEX
  8
1
 10
1
 20
-9
  0
SEQEND
  8
1
  0
LINE
  8
1
 10
-4.3431457505076
 20
1
 11
0
 21
1
  0
POLYLINE
  8
1
 70
1
 66
1
 40
0.5
 41
0.5
  0
VERTEX
  8
1
 10
-2.25
 20
1
 42
1
  0
VERTEX
  8
1
 10
-1.75
 20
1
 42
1
  0
SEQEND
  8
1
  0
POLYLINE
  8
1
 70
1
 66
1
 40
0.5
 41
0.5
  0
VERTEX
  8
1
 10
11.75
 20
1
 42
1
  0
VERTEX
  8
1
 10
12.25
 20
1
 42
1
  0
SEQEND
  8
1
  0
POLYLINE
  8
1
 66
1
  0
VERTEX
  8
1
 10
10
 20
-9
  0
VERTEX
  8
1
 10
12
 20
-9
  0
VERTEX
  8
1
 10
12
 20
1
  0
SEQEND
  8
1
  0
LINE
  8
1
 10
12
 20
7
 11
12
 21
1
  0
LINE
  8
1
 10
13.7677669529664
 20
9.23223304703363
 11
10.2322330470336
 21
12.7677669529664
  0
INSERT
  8
1
  2
LCA1
 10
10.2322330470336
 20
12.7677669529664
 50
135
  0
CIRCLE
  8
1
 10
12
 20
11
 40
4
  0
POLYLINE
  8
1
 66
1
  0
VERTEX
  8
1
 10
5
 20
-11
  0
VERTEX
  8
1
 10
7
 20
-9
  0
VERTEX
  8
1
 10
5
 20
-7
  0
SEQEND
  8
1
  0
CIRCLE
  8
1
 10
5.46666666666667
 20
-9
 40
1
  0
LINE
  8
1
 10
4.5
 20
-9
 11
1
 21
-9
  0
LINE
  8
1
 10
7
 20
-9
 11
10
 21
-9
  0
LINE
  8
1
  6
DASHED
 10
-9.99173588629871
 20
-1.14152857899429
 11
-9.99173588629871
 21
6.67217991999043
  0
LINE
  8
1
 10
-11.3704399180081
 20
-1.14151833722808
 11
-9.99175001980154
 21
-2.52020823543465
  0
LINE
  8
1
 10
-9.99175001980154
 20
-2.52020823543465
 11
-8.61310164199154
 21
-1.14155985762466
  0
LINE
  8
1
 10
-6.4917280828656
 20
-1.14152857899429
 11
-13.4917436897318
 21
-1.14152857899429
  0
POLYLINE
  8
1
 66
1
  0
VERTEX
  8
1
 10
-9.99175001980155
 20
6.67217991999043
  0
VERTEX
  8
1
 10
-15.6486042692939
 20
1.01532567049807
  0
VERTEX
  8
1
 10
-9.99175001980155
 20
-4.64152857899429
  0
VERTEX
  8
1
 10
-4.33489577030914
 20
1.01532567049807
  0
VERTEX
  8
1
 10
-9.99175001980155
 20
6.67217991999043
  0
SEQEND
  8
1
  0
LINE
  8
1
 10
-2.44259788264229
 20
8.27036371433004
 11
6.44287357865983
 21
10.7297125936852
  0
INSERT
  8
1
  2
LCA1
 10
6.44287357865983
 20
10.7297125936852
 50
15.4711922908485
  0
POLYLINE
  8
1
 66
1
  0
VERTEX
  8
1
 10
2.00011108809962
 20
7.0000231433541
  0
VERTEX
  8
1
 10
4.00011108809963
 20
7.4166898100208
  0
VERTEX
  8
1
 10
0.000111088099624605
 20
8.2500231433541
  0
VERTEX
  8
1
 10
4.00011108809963
 20
9.08335647668745
  0
VERTEX
  8
1
 10
0.000111088099624605
 20
9.9166898100208
  0
VERTEX
  8
1
 10
4.00011108809963
 20
10.7500231433541
  0
VERTEX
  8
1
 10
0.000111088099624605
 20
11.5833564766874
  0
VERTEX
  8
1
 10
2.00011108809962
 20
12.0000231433541
  0
SEQEND
  8
1
  0
POLYLINE
  8
1
 66
1
  0
VERTEX
  8
1
 10
0
 20
6
  0
VERTEX
  8
1
 10
-2
 20
5
  0
VERTEX
  8
1
 10
0
 20
4
  0
SEQEND
  8
1
  0
POLYLINE
  8
1
  6
DOT
 66
1
  0
VERTEX
  8
1
 10
2
 20
-1
  0
VERTEX
  8
1
 10
2
 20
-5
  0
VERTEX
  8
1
 10
10
 20
-5
  0
VERTEX
  8
1
 10
10
 20
-1
  0
VERTEX
  8
1
 10
8
 20
1
  0
SEQEND
  8
1
  0
POLYLINE
  8
1
 66
1
  0
VERTEX
  8
1
 10
0
 20
-1
  0
VERTEX
  8
1
 10
8
 20
-1
  0
VERTEX
  8
1
 10
8
 20
7
  0
VERTEX
  8
1
 10
0
 20
7
  0
VERTEX
  8
1
 10
0
 20
-1
  0
SEQEND
  8
1
  0
LINE
  8
1
 10
8
 20
1
 11
0
 21
1
  0
INSERT
  8
1
  2
LCA1
 10
0
 20
1
 50
-180
  0
INSERT
  8
1
  2
LCA1R
 10
8
 20
1
 50
-180
  0
CIRCLE
  8
CONNECTIONS
 10
-24
 20
1
 40
0
  0
CIRCLE
  8
CONNECTIONS
 10
24
 20
1
 40
0
  0
ENDBLK
  8
0
  0
ENDSEC
  0
SECTION
  2
ENTITIES
  0
INSERT
  8
1
  2
B2618_00991587
 10
24
 20
19
  0
ENDSEC
  0
EOF
