  0
SECTION
  2
HEADER
  9
$LIMMIN
 10
0
 20
0
  9
$LIMMAX
 10
52.5
 20
74.25
  9
$EXTMIN
 10
0
 20
42
  9
$EXTMAX
 10
0
 20
28
  0
ENDSEC
  0
SECTION
  2
TABLES
  0
TABLE
  2
LTYPE
 70
9
  0
LTYPE
  2
CONTINUOUS
 70
64
  3
Solid line
 72
65
 73
0
 40
0
  0
LTYPE
  2
DASHED
 70
64
  3
__ __ __ __ __ __ __ __ __
 72
65
 73
2
 40
0.75
 49
0.5
 49
-0.25
  0
LTYPE
  2
DOT
 70
64
  3
...........................
 72
65
 73
2
 40
0.25
 49
0
 49
-0.25
  0
LTYPE
  2
DASHDOT
 70
64
  3
__ . __ . __ . __ . __ . __ . 
 72
65
 73
4
 40
1
 49
0.5
 49
-0.25
 49
0
 49
-0.25
  0
ENDTAB
  0
TABLE
  2
LAYER
 70
10
  0
LAYER
  2
1
 70
0
 62
7
  6
CONTINUOUS
  0
LAYER
  2
CONNECTIONS
 70
0
 62
-7
  6
CONTINUOUS
  0
ENDTAB
  0
ENDSEC
  0
SECTION
  2
BLOCKS
  0
BLOCK
  8
0
  2
TRICON
 70
0
 10
0
 20
0
  0
POLYLINE
  8
1
 70
1
 66
1
 40
0.5
 41
0.5
  0
VERTEX
  8
1
 10
-0.25
 20
0
 42
1
  0
VERTEX
  8
1
 10
0.25
 20
0
 42
1
  0
SEQEND
  8
1
  0
ENDBLK
  8
0
  0
BLOCK
  8
0
  2
TRICONSMALL
 70
0
 10
0
 20
0
  0
POLYLINE
  8
1
 70
1
 66
1
 40
0.25
 41
0.25
  0
VERTEX
  8
1
 10
-0.125
 20
0
 42
1
  0
VERTEX
  8
1
 10
0.125
 20
0
 42
1
  0
SEQEND
  8
1
  0
ENDBLK
  8
0
  0
BLOCK
  8
0
  2
TRICONCIRCLE
 70
0
 10
0
 20
0
  0
CIRCLE
  8
1
 10
0
 20
0
 40
0.5
  0
ENDBLK
  8
0
  0
BLOCK
  8
0
  2
LCBP0
 70
0
 10
0
 20
0
  0
LINE
  8
1
 10
0
 20
-0.46875
 11
0
 21
0.46875
  0
ENDBLK
  8
0
  0
BLOCK
  8
0
  2
LCBP1
 70
0
 10
0
 20
0
  0
LINE
  8
1
 10
0
 20
-0.625
 11
0
 21
0.625
  0
ENDBLK
  8
0
  0
BLOCK
  8
0
  2
LCBP2
 70
0
 10
0
 20
0
  0
LINE
  8
1
 10
0
 20
-0.9375
 11
0
 21
0.9375
  0
ENDBLK
  8
0
  0
BLOCK
  8
0
  2
LCA1
 70
0
 10
0
 20
0
  0
SOLID
  8
1
 62
7 
 10
0
 20
0
 11
-1.4
 21
-0.275
 12
-1.4
 22
0.275
 13
-1.4
 23
0.275
  0
ENDBLK
  8
0
  0
BLOCK
  8
0
  2
LCA2
 70
0
 10
0
 20
0
  0
SOLID
  8
1
 62
7 
 10
0
 20
0
 11
-1.65
 21
-0.525
 12
-1.65
 22
0.525
 13
-1.65
 23
0.525
  0
ENDBLK
  8
0
  0
BLOCK
  8
0
  2
LCA3
 70
0
 10
0
 20
0
  0
SOLID
  8
1
 62
7 
 10
0
 20
0
 11
-2.15
 21
-1.15
 12
-2.15
 22
1.15
 13
-2.15
 23
1.15
  0
ENDBLK
  8
0
  0
BLOCK
  8
0
  2
LCA1R
 70
0
 10
0
 20
0
  0
SOLID
  8
1
 62
7 
 10
0
 20
0
 11
1.4
 21
-0.275
 12
1.4
 22
0.275
 13
1.4
 23
0.275
  0
ENDBLK
  8
0
  0
BLOCK
  8
0
  2
LCA2R
 70
0
 10
0
 20
0
  0
SOLID
  8
1
 62
7 
 10
0
 20
0
 11
1.65
 21
-0.525
 12
1.65
 22
0.525
 13
1.65
 23
0.525
  0
ENDBLK
  8
0
  0
BLOCK
  8
0
  2
LCA3R
 70
0
 10
0
 20
0
  0
SOLID
  8
1
 62
7 
 10
0
 20
0
 11
2.15
 21
-1.15
 12
2.15
 22
1.15
 13
2.15
 23
1.15
  0
ENDBLK
  8
0
  0
BLOCK
  8
0
  2
B2596_00991586
 70
0
 10
0
 20
0
  0
POLYLINE
  8
1
  6
DASHDOT
 66
1
  0
VERTEX
  8
1
 10
-17
 20
14
  0
VERTEX
  8
1
 10
17
 20
14
  0
VERTEX
  8
1
 10
17
 20
-10
  0
VERTEX
  8
1
 10
-17
 20
-10
  0
VERTEX
  8
1
 10
-17
 20
14
  0
SEQEND
  8
1
  0
LINE
  8
1
 10
-7
 20
-10
 11
-7
 21
-14
  0
LINE
  8
1
 10
-21
 20
0
 11
-17
 21
0
  0
LINE
  8
1
 10
17
 20
0
 11
21
 21
0
  0
TEXT
  8
1
 40
2.475
 41
0.75
  1
1
  7
STANDARD
 72
2
 10
-17.4655974188913
 20
1.88445042088071
 11
-17.4655974188913
 21
1.88445042088071
  0
TEXT
  8
1
 40
2.475
 41
0.75
  1
2
  7
STANDARD
 73
2
 10
18.1584699453552
 20
3.01639344262298
 11
18.1584699453552
 21
3.01639344262298
  0
LINE
  8
1
 10
11
 20
0
 11
17
 21
0
  0
LINE
  8
1
 10
-7
 20
-5.66702252124246
 11
-7
 21
-10
  0
LINE
  8
1
 10
-17
 20
0
 11
-12.6272645574986
 21
0
  0
LINE
  8
1
 10
-1.3135560585138
 20
0
 11
3
 21
0
  0
LINE
  8
1
 10
-8.9703831812701
 20
-3.66702252124248
 11
-4.97039804880815
 21
-3.66702252124248
  0
LINE
  8
1
  6
DASHED
 10
-6.97039617450338
 20
-3.66702252124248
 11
-6.97039617450338
 21
5.64668597774224
  0
POLYLINE
  8
1
 66
1
  0
VERTEX
  8
1
 10
-6.9704103080062
 20
5.64668597774225
  0
VERTEX
  8
1
 10
-12.6272645574986
 20
-0.0101682717500999
  0
VERTEX
  8
1
 10
-6.9704103080062
 20
-5.66702252124247
  0
VERTEX
  8
1
 10
-1.3135560585138
 20
-0.0101682717500999
  0
VERTEX
  8
1
 10
-6.9704103080062
 20
5.64668597774225
  0
SEQEND
  8
1
  0
LINE
  8
1
 10
0.557402117357711
 20
7.27036371433004
 11
9.44287357865983
 21
9.72971259368521
  0
INSERT
  8
1
  2
LCA1
 10
9.44287357865983
 20
9.72971259368521
 50
15.4711922908485
  0
POLYLINE
  8
1
 66
1
  0
VERTEX
  8
1
 10
5.00011108809962
 20
6.0000231433541
  0
VERTEX
  8
1
 10
7.00011108809963
 20
6.4166898100208
  0
VERTEX
  8
1
 10
3.00011108809962
 20
7.2500231433541
  0
VERTEX
  8
1
 10
7.00011108809963
 20
8.08335647668745
  0
VERTEX
  8
1
 10
3.00011108809962
 20
8.9166898100208
  0
VERTEX
  8
1
 10
7.00011108809963
 20
9.7500231433541
  0
VERTEX
  8
1
 10
3.00011108809962
 20
10.5833564766874
  0
VERTEX
  8
1
 10
5.00011108809962
 20
11.0000231433541
  0
SEQEND
  8
1
  0
POLYLINE
  8
1
 66
1
  0
VERTEX
  8
1
 10
3
 20
5
  0
VERTEX
  8
1
 10
1
 20
4
  0
VERTEX
  8
1
 10
3
 20
3
  0
SEQEND
  8
1
  0
POLYLINE
  8
1
  6
DOT
 66
1
  0
VERTEX
  8
1
 10
5
 20
-2
  0
VERTEX
  8
1
 10
5
 20
-6
  0
VERTEX
  8
1
 10
13
 20
-6
  0
VERTEX
  8
1
 10
13
 20
-2
  0
VERTEX
  8
1
 10
11
 20
0
  0
SEQEND
  8
1
  0
POLYLINE
  8
1
 66
1
  0
VERTEX
  8
1
 10
3
 20
-2
  0
VERTEX
  8
1
 10
11
 20
-2
  0
VERTEX
  8
1
 10
11
 20
6
  0
VERTEX
  8
1
 10
3
 20
6
  0
VERTEX
  8
1
 10
3
 20
-2
  0
SEQEND
  8
1
  0
LINE
  8
1
 10
11
 20
0
 11
3
 21
0
  0
INSERT
  8
1
  2
LCA1
 10
3
 20
0
 50
-180
  0
INSERT
  8
1
  2
LCA1R
 10
11
 20
0
 50
-180
  0
CIRCLE
  8
CONNECTIONS
 10
-21
 20
0
 40
0
  0
CIRCLE
  8
CONNECTIONS
 10
21
 20
0
 40
0
  0
ENDBLK
  8
0
  0
ENDSEC
  0
SECTION
  2
ENTITIES
  0
INSERT
  8
1
  2
B2596_00991586
 10
21
 20
14
  0
ENDSEC
  0
EOF
