  0
SECTION
  2
HEADER
  9
$LIMMIN
 10
0
 20
0
  9
$LIMMAX
 10
52.5
 20
74.25
  9
$EXTMIN
 10
0
 20
54
  9
$EXTMAX
 10
0
 20
46.8561945286667
  0
ENDSEC
  0
SECTION
  2
TABLES
  0
TABLE
  2
LTYPE
 70
9
  0
LTYPE
  2
CONTINUOUS
 70
64
  3
Solid line
 72
65
 73
0
 40
0
  0
LTYPE
  2
DASHED
 70
64
  3
__ __ __ __ __ __ __ __ __
 72
65
 73
2
 40
0.75
 49
0.5
 49
-0.25
  0
LTYPE
  2
DOT
 70
64
  3
...........................
 72
65
 73
2
 40
0.25
 49
0
 49
-0.25
  0
LTYPE
  2
DASHDOT
 70
64
  3
__ . __ . __ . __ . __ . __ . 
 72
65
 73
4
 40
1
 49
0.5
 49
-0.25
 49
0
 49
-0.25
  0
ENDTAB
  0
TABLE
  2
LAYER
 70
10
  0
LAYER
  2
1
 70
0
 62
7
  6
CONTINUOUS
  0
LAYER
  2
CONNECTIONS
 70
0
 62
-7
  6
CONTINUOUS
  0
ENDTAB
  0
ENDSEC
  0
SECTION
  2
BLOCKS
  0
BLOCK
  8
0
  2
TRICON
 70
0
 10
0
 20
0
  0
POLYLINE
  8
1
 70
1
 66
1
 40
0.5
 41
0.5
  0
VERTEX
  8
1
 10
-0.25
 20
0
 42
1
  0
VERTEX
  8
1
 10
0.25
 20
0
 42
1
  0
SEQEND
  8
1
  0
ENDBLK
  8
0
  0
BLOCK
  8
0
  2
TRICONSMALL
 70
0
 10
0
 20
0
  0
POLYLINE
  8
1
 70
1
 66
1
 40
0.25
 41
0.25
  0
VERTEX
  8
1
 10
-0.125
 20
0
 42
1
  0
VERTEX
  8
1
 10
0.125
 20
0
 42
1
  0
SEQEND
  8
1
  0
ENDBLK
  8
0
  0
BLOCK
  8
0
  2
TRICONCIRCLE
 70
0
 10
0
 20
0
  0
CIRCLE
  8
1
 10
0
 20
0
 40
0.5
  0
ENDBLK
  8
0
  0
BLOCK
  8
0
  2
LCBP0
 70
0
 10
0
 20
0
  0
LINE
  8
1
 10
0
 20
-0.46875
 11
0
 21
0.46875
  0
ENDBLK
  8
0
  0
BLOCK
  8
0
  2
LCBP1
 70
0
 10
0
 20
0
  0
LINE
  8
1
 10
0
 20
-0.625
 11
0
 21
0.625
  0
ENDBLK
  8
0
  0
BLOCK
  8
0
  2
LCBP2
 70
0
 10
0
 20
0
  0
LINE
  8
1
 10
0
 20
-0.9375
 11
0
 21
0.9375
  0
ENDBLK
  8
0
  0
BLOCK
  8
0
  2
LCA1
 70
0
 10
0
 20
0
  0
SOLID
  8
1
 62
7 
 10
0
 20
0
 11
-1.4
 21
-0.275
 12
-1.4
 22
0.275
 13
-1.4
 23
0.275
  0
ENDBLK
  8
0
  0
BLOCK
  8
0
  2
LCA2
 70
0
 10
0
 20
0
  0
SOLID
  8
1
 62
7 
 10
0
 20
0
 11
-1.65
 21
-0.525
 12
-1.65
 22
0.525
 13
-1.65
 23
0.525
  0
ENDBLK
  8
0
  0
BLOCK
  8
0
  2
LCA3
 70
0
 10
0
 20
0
  0
SOLID
  8
1
 62
7 
 10
0
 20
0
 11
-2.15
 21
-1.15
 12
-2.15
 22
1.15
 13
-2.15
 23
1.15
  0
ENDBLK
  8
0
  0
BLOCK
  8
0
  2
LCA1R
 70
0
 10
0
 20
0
  0
SOLID
  8
1
 62
7 
 10
0
 20
0
 11
1.4
 21
-0.275
 12
1.4
 22
0.275
 13
1.4
 23
0.275
  0
ENDBLK
  8
0
  0
BLOCK
  8
0
  2
LCA2R
 70
0
 10
0
 20
0
  0
SOLID
  8
1
 62
7 
 10
0
 20
0
 11
1.65
 21
-0.525
 12
1.65
 22
0.525
 13
1.65
 23
0.525
  0
ENDBLK
  8
0
  0
BLOCK
  8
0
  2
LCA3R
 70
0
 10
0
 20
0
  0
SOLID
  8
1
 62
7 
 10
0
 20
0
 11
2.15
 21
-1.15
 12
2.15
 22
1.15
 13
2.15
 23
1.15
  0
ENDBLK
  8
0
  0
BLOCK
  8
0
  2
B10374_00991582
 70
0
 10
0
 20
0
  0
POLYLINE
  8
1
 66
1
  0
VERTEX
  8
1
 10
-27
 20
11.5996701395872
  0
VERTEX
  8
1
 10
27
 20
11.5996701395872
  0
VERTEX
  8
1
 10
27
 20
-19.4003298604128
  0
VERTEX
  8
1
 10
-27
 20
-19.4003298604128
  0
VERTEX
  8
1
 10
-27
 20
11.5996701395872
  0
SEQEND
  8
1
  0
TEXT
  8
1
 40
2.475
 41
0.75
  1
2
  7
STANDARD
 72
2
 73
3
 10
15.4
 20
16.9531527356666
 11
15.4
 21
16.9531527356666
  0
TEXT
  8
1
 40
2.475
 41
0.75
  1
14
  7
STANDARD
 72
2
 73
2
 10
-0.642012331298323
 20
-22.386084933035
 11
-0.642012331298323
 21
-22.386084933035
  0
TEXT
  8
1
 40
2.475
 41
0.75
  1
4
  7
STANDARD
 72
2
 73
3
 10
7.4
 20
16.9531527356666
 11
7.4
 21
16.9531527356666
  0
TEXT
  8
1
 40
2.475
 41
0.75
  1
3
  7
STANDARD
 72
2
 73
2
 10
19.4
 20
-22.4280972643333
 11
19.4
 21
-22.4280972643333
  0
LINE
  8
1
 10
19
 20
11.5719027356666
 11
19
 21
15.5719027356666
  0
LINE
  8
1
 10
7
 20
11.5719027356666
 11
7
 21
15.5719027356666
  0
LINE
  8
1
 10
15
 20
11.5719027356666
 11
15
 21
15.5719027356666
  0
LINE
  8
1
 10
11
 20
11.5719027356666
 11
11
 21
15.5719027356666
  0
LINE
  8
1
 10
3
 20
11.5719027356666
 11
3
 21
15.5719027356666
  0
LINE
  8
1
 10
-1
 20
11.5719027356666
 11
-1
 21
15.5719027356666
  0
TEXT
  8
1
 40
2.475
 41
0.75
  1
5
  7
STANDARD
 72
2
 73
2
 10
3.4753702498575
 20
-22.3730222383793
 11
3.4753702498575
 21
-22.3730222383793
  0
TEXT
  8
1
 40
2.475
 41
0.75
  1
1
  7
STANDARD
 72
2
 73
2
 10
11.5753301686238
 20
-22.3404321800215
 11
11.5753301686238
 21
-22.3404321800215
  0
TEXT
  8
1
 40
2.475
 41
0.75
  1
12
  7
STANDARD
 73
2
 10
22.6347789764404
 20
-22.4280972643333
 11
22.6347789764404
 21
-22.4280972643333
  0
LINE
  8
1
 10
23
 20
11.5719027356666
 11
23
 21
15.5719027356666
  0
LINE
  8
1
 10
-1
 20
-19.4280972643333
 11
-1
 21
-23.4280972643333
  0
LINE
  8
1
 10
3
 20
-19.4280972643333
 11
3
 21
-23.4280972643333
  0
LINE
  8
1
 10
7
 20
-19.4280972643333
 11
7
 21
-23.4280972643333
  0
LINE
  8
1
 10
11
 20
-19.4280972643333
 11
11
 21
-23.4280972643333
  0
LINE
  8
1
 10
15
 20
-19.4280972643333
 11
15
 21
-23.4280972643333
  0
LINE
  8
1
 10
19
 20
-19.4280972643333
 11
19
 21
-23.4280972643333
  0
LINE
  8
1
 10
23
 20
-19.4280972643333
 11
23
 21
-23.4280972643333
  0
LINE
  8
1
 10
-1
 20
11.5996701395872
 11
-1
 21
-19.4003298604128
  0
LINE
  8
1
 10
3
 20
11.5996701395872
 11
3
 21
-19.4003298604128
  0
LINE
  8
1
 10
7
 20
11.5996701395872
 11
7
 21
-19.4003298604128
  0
LINE
  8
1
 10
11
 20
11.5996701395872
 11
11
 21
-1.40032986041284
  0
LINE
  8
1
 10
15
 20
11.5996701395872
 11
15
 21
-19.4003298604128
  0
LINE
  8
1
 10
19
 20
11.5996701395872
 11
19
 21
-19.4003298604128
  0
LINE
  8
1
 10
23
 20
11.5996701395872
 11
23
 21
-19.4003298604128
  0
LINE
  8
1
 10
11
 20
-15.4003298604128
 11
11
 21
-19.4003298604128
  0
LINE
  8
1
 10
-23
 20
-15.4003298604128
 11
-23
 21
-1.40032986041284
  0
LINE
  8
1
 10
11
 20
-15.4003298604128
 11
-23
 21
-15.4003298604128
  0
LINE
  8
1
 10
-5
 20
-11.4003298604128
 11
-5
 21
-1.40032986041284
  0
LINE
  8
1
 10
-23
 20
-1.40032986041284
 11
-17
 21
-1.40032986041284
  0
LINE
  8
1
 10
-17.5
 20
-11.4003298604128
 11
-20
 21
-11.4003298604128
  0
LINE
  8
1
 10
-20
 20
-1.40032986041284
 11
-20
 21
-11.4003298604128
  0
POLYLINE
  8
1
 70
1
 66
1
 40
0.6
 41
0.6
  0
VERTEX
  8
1
 10
-20.3
 20
-1.40032986041284
 42
1
  0
VERTEX
  8
1
 10
-19.7
 20
-1.40032986041284
 42
1
  0
SEQEND
  8
1
  0
LINE
  8
1
 10
11
 20
-1.40032986041284
 11
-9
 21
-1.40032986041284
  0
LINE
  8
1
 10
-5
 20
-11.4003298604128
 11
-9
 21
-11.4003298604128
  0
POLYLINE
  8
1
 70
1
 66
1
 40
0.6
 41
0.6
  0
VERTEX
  8
1
 10
-5.3
 20
-1.40032986041284
 42
1
  0
VERTEX
  8
1
 10
-4.7
 20
-1.40032986041284
 42
1
  0
SEQEND
  8
1
  0
LINE
  8
1
 10
-20
 20
-1.40032986041284
 11
-20
 21
14.5996701395872
  0
LINE
  8
1
 10
-18.6748033522158
 20
19.1500146359525
 11
-21.503230476962
 21
21.9784417606987
  0
INSERT
  8
1
  2
LCA1
 10
-21.503230476962
 20
21.9784417606987
 50
135
  0
LINE
  8
1
 10
-20
 20
17.771243014841
 11
-20
 21
14.5996701395872
  0
CIRCLE
  8
1
 10
-20
 20
20.5996701395872
 40
2.82842712474619
  0
LINE
  8
1
 10
-14.6
 20
-11.4003298604128
 11
-18
 21
-11.4003298604128
  0
LINE
  8
1
 10
-9
 20
-11.4003298604128
 11
-12
 21
-11.4003298604128
  0
POLYLINE
  8
1
 66
1
  0
VERTEX
  8
1
 10
-14
 20
-9.40032986041284
  0
VERTEX
  8
1
 10
-12
 20
-11.4003298604128
  0
VERTEX
  8
1
 10
-14
 20
-13.4003298604128
  0
SEQEND
  8
1
  0
CIRCLE
  8
1
 10
-13.4666666666667
 20
-11.4003298604128
 40
1
  0
LINE
  8
1
 10
-6.55506601704452
 20
5.87796236439107
 11
-15.4449331506217
 21
8.3213743941855
  0
INSERT
  8
1
  2
LCA1
 10
-15.4449331506217
 20
8.3213743941855
 50
164.631547127478
  0
POLYLINE
  8
1
 66
1
  0
VERTEX
  8
1
 10
-11
 20
4.59967013958715
  0
VERTEX
  8
1
 10
-13
 20
5.01633680625385
  0
VERTEX
  8
1
 10
-9
 20
5.84967013958715
  0
VERTEX
  8
1
 10
-13
 20
6.68300347292053
  0
VERTEX
  8
1
 10
-9
 20
7.51633680625385
  0
VERTEX
  8
1
 10
-13
 20
8.34967013958715
  0
VERTEX
  8
1
 10
-9
 20
9.18300347292045
  0
VERTEX
  8
1
 10
-11
 20
9.59967013958715
  0
SEQEND
  8
1
  0
POLYLINE
  8
1
 66
1
  0
VERTEX
  8
1
 10
-9
 20
3.59967013958715
  0
VERTEX
  8
1
 10
-7
 20
2.59967013958715
  0
VERTEX
  8
1
 10
-9
 20
1.59967013958715
  0
SEQEND
  8
1
  0
POLYLINE
  8
1
  6
DOT
 66
1
  0
VERTEX
  8
1
 10
-11
 20
-3.40032986041285
  0
VERTEX
  8
1
 10
-11
 20
-7.40032986041285
  0
VERTEX
  8
1
 10
-19
 20
-7.40032986041285
  0
VERTEX
  8
1
 10
-19
 20
-3.40032986041285
  0
VERTEX
  8
1
 10
-17
 20
-1.40032986041285
  0
SEQEND
  8
1
  0
POLYLINE
  8
1
 66
1
  0
VERTEX
  8
1
 10
-9
 20
-3.40032986041285
  0
VERTEX
  8
1
 10
-17
 20
-3.40032986041285
  0
VERTEX
  8
1
 10
-17
 20
4.59967013958715
  0
VERTEX
  8
1
 10
-9
 20
4.59967013958715
  0
VERTEX
  8
1
 10
-9
 20
-3.40032986041285
  0
SEQEND
  8
1
  0
LINE
  8
1
 10
-17
 20
-1.40032986041284
 11
-9
 21
-1.40032986041284
  0
INSERT
  8
1
  2
LCA1
 10
-9
 20
-1.40032986041284
 50
0
  0
INSERT
  8
1
  2
LCA1R
 10
-17
 20
-1.40032986041284
 50
0
  0
CIRCLE
  8
CONNECTIONS
 10
-1
 20
15.5719027356666
 40
0
  0
CIRCLE
  8
CONNECTIONS
 10
2.87632792886382
 20
15.6955748068028
 40
0
  0
CIRCLE
  8
CONNECTIONS
 10
7
 20
15.5719027356666
 40
0
  0
CIRCLE
  8
CONNECTIONS
 10
11
 20
15.5719027356666
 40
0
  0
CIRCLE
  8
CONNECTIONS
 10
15
 20
15.5719027356666
 40
0
  0
CIRCLE
  8
CONNECTIONS
 10
19
 20
15.5719027356666
 40
0
  0
CIRCLE
  8
CONNECTIONS
 10
23
 20
15.5719027356666
 40
0
  0
CIRCLE
  8
CONNECTIONS
 10
-1
 20
-23.4280972643333
 40
0
  0
CIRCLE
  8
CONNECTIONS
 10
3
 20
-23.4280972643333
 40
0
  0
CIRCLE
  8
CONNECTIONS
 10
7
 20
-23.4280972643333
 40
0
  0
CIRCLE
  8
CONNECTIONS
 10
11
 20
-23.4280972643333
 40
0
  0
CIRCLE
  8
CONNECTIONS
 10
15
 20
-23.4280972643333
 40
0
  0
CIRCLE
  8
CONNECTIONS
 10
19
 20
-23.4280972643333
 40
0
  0
CIRCLE
  8
CONNECTIONS
 10
23
 20
-23.4280972643333
 40
0
  0
ENDBLK
  8
0
  0
ENDSEC
  0
SECTION
  2
ENTITIES
  0
INSERT
  8
1
  2
B10374_00991582
 10
27
 20
23.4280972643333
  0
ENDSEC
  0
EOF
