  0
SECTION
  2
HEADER
  9
$LIMMIN
 10
0
 20
0
  9
$LIMMAX
 10
52.5
 20
74.25
  9
$EXTMIN
 10
0
 20
68
  9
$EXTMAX
 10
0
 20
36
  0
ENDSEC
  0
SECTION
  2
TABLES
  0
TABLE
  2
LTYPE
 70
9
  0
LTYPE
  2
CONTINUOUS
 70
64
  3
Solid line
 72
65
 73
0
 40
0
  0
LTYPE
  2
DASHED
 70
64
  3
__ __ __ __ __ __ __ __ __
 72
65
 73
2
 40
0.75
 49
0.5
 49
-0.25
  0
LTYPE
  2
DOT
 70
64
  3
...........................
 72
65
 73
2
 40
0.25
 49
0
 49
-0.25
  0
LTYPE
  2
DASHDOT
 70
64
  3
__ . __ . __ . __ . __ . __ . 
 72
65
 73
4
 40
1
 49
0.5
 49
-0.25
 49
0
 49
-0.25
  0
ENDTAB
  0
TABLE
  2
LAYER
 70
10
  0
LAYER
  2
1
 70
0
 62
7
  6
CONTINUOUS
  0
LAYER
  2
CONNECTIONS
 70
0
 62
-7
  6
CONTINUOUS
  0
ENDTAB
  0
ENDSEC
  0
SECTION
  2
BLOCKS
  0
BLOCK
  8
0
  2
TRICON
 70
0
 10
0
 20
0
  0
POLYLINE
  8
1
 70
1
 66
1
 40
0.5
 41
0.5
  0
VERTEX
  8
1
 10
-0.25
 20
0
 42
1
  0
VERTEX
  8
1
 10
0.25
 20
0
 42
1
  0
SEQEND
  8
1
  0
ENDBLK
  8
0
  0
BLOCK
  8
0
  2
TRICONSMALL
 70
0
 10
0
 20
0
  0
POLYLINE
  8
1
 70
1
 66
1
 40
0.25
 41
0.25
  0
VERTEX
  8
1
 10
-0.125
 20
0
 42
1
  0
VERTEX
  8
1
 10
0.125
 20
0
 42
1
  0
SEQEND
  8
1
  0
ENDBLK
  8
0
  0
BLOCK
  8
0
  2
TRICONCIRCLE
 70
0
 10
0
 20
0
  0
CIRCLE
  8
1
 10
0
 20
0
 40
0.5
  0
ENDBLK
  8
0
  0
BLOCK
  8
0
  2
LCBP0
 70
0
 10
0
 20
0
  0
LINE
  8
1
 10
0
 20
-0.46875
 11
0
 21
0.46875
  0
ENDBLK
  8
0
  0
BLOCK
  8
0
  2
LCBP1
 70
0
 10
0
 20
0
  0
LINE
  8
1
 10
0
 20
-0.625
 11
0
 21
0.625
  0
ENDBLK
  8
0
  0
BLOCK
  8
0
  2
LCBP2
 70
0
 10
0
 20
0
  0
LINE
  8
1
 10
0
 20
-0.9375
 11
0
 21
0.9375
  0
ENDBLK
  8
0
  0
BLOCK
  8
0
  2
LCA1
 70
0
 10
0
 20
0
  0
SOLID
  8
1
 62
7 
 10
0
 20
0
 11
-1.4
 21
-0.275
 12
-1.4
 22
0.275
 13
-1.4
 23
0.275
  0
ENDBLK
  8
0
  0
BLOCK
  8
0
  2
LCA2
 70
0
 10
0
 20
0
  0
SOLID
  8
1
 62
7 
 10
0
 20
0
 11
-1.65
 21
-0.525
 12
-1.65
 22
0.525
 13
-1.65
 23
0.525
  0
ENDBLK
  8
0
  0
BLOCK
  8
0
  2
LCA3
 70
0
 10
0
 20
0
  0
SOLID
  8
1
 62
7 
 10
0
 20
0
 11
-2.15
 21
-1.15
 12
-2.15
 22
1.15
 13
-2.15
 23
1.15
  0
ENDBLK
  8
0
  0
BLOCK
  8
0
  2
LCA1R
 70
0
 10
0
 20
0
  0
SOLID
  8
1
 62
7 
 10
0
 20
0
 11
1.4
 21
-0.275
 12
1.4
 22
0.275
 13
1.4
 23
0.275
  0
ENDBLK
  8
0
  0
BLOCK
  8
0
  2
LCA2R
 70
0
 10
0
 20
0
  0
SOLID
  8
1
 62
7 
 10
0
 20
0
 11
1.65
 21
-0.525
 12
1.65
 22
0.525
 13
1.65
 23
0.525
  0
ENDBLK
  8
0
  0
BLOCK
  8
0
  2
LCA3R
 70
0
 10
0
 20
0
  0
SOLID
  8
1
 62
7 
 10
0
 20
0
 11
2.15
 21
-1.15
 12
2.15
 22
1.15
 13
2.15
 23
1.15
  0
ENDBLK
  8
0
  0
BLOCK
  8
0
  2
B269_00991560
 70
0
 10
0
 20
0
  0
TEXT
  8
1
 40
2.475
 41
0.75
  1
2
  7
STANDARD
 72
2
 73
3
 10
26
 20
18.38125
 11
26
 21
18.38125
  0
TEXT
  8
1
 40
2.475
 41
0.75
  1
4
  7
STANDARD
 72
2
 73
3
 10
7.99999999999999
 20
18.38125
 11
7.99999999999999
 21
18.38125
  0
LINE
  8
1
 10
27
 20
10
 11
27
 21
18
  0
INSERT
  8
1
  2
LCBP1
 10
27
 20
10
 50
90
  0
POLYLINE
  8
1
 70
1
 66
1
 40
0.5
 41
0.5
  0
VERTEX
  8
1
 10
-2.25
 20
2
 42
1
  0
VERTEX
  8
1
 10
-1.75
 20
2
 42
1
  0
SEQEND
  8
1
  0
LINE
  8
1
 10
9
 20
18
 11
9
 21
9
  0
LINE
  8
1
 10
26
 20
-10
 11
26
 21
-18
  0
INSERT
  8
1
  2
LCBP1
 10
26
 20
-10
 50
-90
  0
TEXT
  8
1
 40
2.475
 41
0.75
  1
11
  7
STANDARD
 10
26.3516496022542
 20
-18.2625
  0
TEXT
  8
1
 40
2.475
 41
0.75
  1
3/5
  7
STANDARD
 72
2
 10
19
 20
-18.2625
 11
19
 21
-18.2625
  0
LINE
  8
1
 10
20
 20
8
 11
20
 21
-18
  0
LINE
  8
1
 10
-2
 20
8
 11
20
 21
8
  0
LINE
  8
1
 10
-2
 20
2
 11
14
 21
2
  0
LINE
  8
1
 10
14
 20
-8
 11
12
 21
-8
  0
LINE
  8
1
 10
14
 20
2
 11
14
 21
-8
  0
ARC
  8
1
 10
9
 20
18
 40
9
 50
250.52865870751
 51
289.47139531546
  0
ARC
  8
1
 10
9
 20
-2
 40
9
 50
70.528596800055
 51
109.471050579339
  0
LINE
  8
1
 10
-2
 20
2
 11
-2
 21
8
  0
LINE
  8
1
 10
4
 20
-8
 11
8.53591445210607
 21
-8
  0
LINE
  8
1
 10
12
 20
-6
 11
8.53589838486224
 21
-8
  0
LINE
  8
1
 10
12
 20
-6
 11
12
 21
-10
  0
LINE
  8
1
 10
12
 20
-10
 11
8.53589838486224
 21
-8
  0
TEXT
  8
1
 40
2.475
 41
0.75
  1
14
  7
STANDARD
 72
2
 10
-22.499964946867
 20
-18.2625
 11
-22.499964946867
 21
-18.2625
  0
TEXT
  8
1
 40
2.475
 41
0.75
  1
84
  7
STANDARD
 10
-16.9607142551353
 20
-18.1571320760917
  0
LINE
  8
1
 10
-21.999964946867
 20
-10
 11
-21.999964946867
 21
-18
  0
LINE
  8
1
 10
-17.999964946867
 20
-9.89463207609175
 11
-17.999964946867
 21
-17.8946320760917
  0
TEXT
  8
1
 40
2.475
 41
0.75
  1
1
  7
STANDARD
 72
2
 10
-2.5
 20
-18.2625
 11
-2.5
 21
-18.2625
  0
LINE
  8
1
 10
-2
 20
-10
 11
-2
 21
-18
  0
POLYLINE
  8
1
 66
1
  0
VERTEX
  8
1
 10
-6
 20
-2
  0
VERTEX
  8
1
 10
2
 20
-2
  0
VERTEX
  8
1
 10
2
 20
-10
  0
VERTEX
  8
1
 10
-6
 20
-10
  0
VERTEX
  8
1
 10
-6
 20
-2
  0
SEQEND
  8
1
  0
POLYLINE
  8
1
 66
1
  0
VERTEX
  8
1
 10
2
 20
-7
  0
VERTEX
  8
1
 10
4
 20
-7
  0
VERTEX
  8
1
 10
4
 20
-10
  0
VERTEX
  8
1
 10
2
 20
-10
  0
VERTEX
  8
1
 10
2
 20
-7
  0
SEQEND
  8
1
  0
LINE
  8
1
 10
-10
 20
-10
 11
-10
 21
-2
  0
INSERT
  8
1
  2
LCA1
 10
-10
 20
-2
 50
90
  0
POLYLINE
  8
1
 66
1
  0
VERTEX
  8
1
 10
-14
 20
-2
  0
VERTEX
  8
1
 10
-6
 20
-2
  0
VERTEX
  8
1
 10
-6
 20
-10
  0
VERTEX
  8
1
 10
-14
 20
-10
  0
VERTEX
  8
1
 10
-14
 20
-2
  0
SEQEND
  8
1
  0
LINE
  8
1
 10
-25.999964946867
 20
-10
 11
-23.999964946867
 21
-6
  0
POLYLINE
  8
1
 66
1
  0
VERTEX
  8
1
 10
-27.999964946867
 20
-6
  0
VERTEX
  8
1
 10
-21.999964946867
 20
-6
  0
VERTEX
  8
1
 10
-21.999964946867
 20
-10
  0
VERTEX
  8
1
 10
-27.999964946867
 20
-10
  0
VERTEX
  8
1
 10
-27.999964946867
 20
-6
  0
SEQEND
  8
1
  0
LINE
  8
1
 10
-21.999964946867
 20
-6
 11
-21.999964946867
 21
-10
  0
LINE
  8
1
 10
-21.999964946867
 20
-6
 11
-18.5358633317293
 21
-8
  0
LINE
  8
1
 10
-21.999964946867
 20
-10
 11
-18.5358633317293
 21
-8
  0
POLYLINE
  8
1
 66
1
  0
VERTEX
  8
1
 10
-21.999964946867
 20
-6
  0
VERTEX
  8
1
 10
-15.999964946867
 20
-6
  0
VERTEX
  8
1
 10
-15.999964946867
 20
-10
  0
VERTEX
  8
1
 10
-21.999964946867
 20
-10
  0
VERTEX
  8
1
 10
-21.999964946867
 20
-6
  0
SEQEND
  8
1
  0
POLYLINE
  8
1
 66
1
  0
VERTEX
  8
1
 10
-16
 20
-4
  0
VERTEX
  8
1
 10
-14
 20
-4
  0
VERTEX
  8
1
 10
-14
 20
-10
  0
VERTEX
  8
1
 10
-16
 20
-10
  0
VERTEX
  8
1
 10
-16
 20
-4
  0
SEQEND
  8
1
  0
LINE
  8
1
 10
-26
 20
-2
 11
-26
 21
-5
  0
LINE
  8
1
 10
-26
 20
-2.5
 11
-22
 21
-2.5
  0
LINE
  8
1
 10
-26
 20
-4.5
 11
-22
 21
-4.5
  0
LINE
  8
1
 10
-22
 20
-6
 11
-22
 21
-2
  0
POLYLINE
  8
1
 66
1
  0
VERTEX
  8
1
 10
7
 20
-4
  0
VERTEX
  8
1
 10
6.58333333333325
 20
-6
  0
VERTEX
  8
1
 10
5.75
 20
-2
  0
VERTEX
  8
1
 10
4.91666666666675
 20
-6
  0
VERTEX
  8
1
 10
4.08333333333325
 20
-2
  0
VERTEX
  8
1
 10
3.25
 20
-6
  0
VERTEX
  8
1
 10
2.41666666666675
 20
-2
  0
VERTEX
  8
1
 10
2
 20
-4
  0
SEQEND
  8
1
  0
LINE
  8
1
 10
-2
 20
2
 11
-2
 21
-2
  0
LINE
  8
1
 10
-2
 20
-2
 11
-2
 21
-4
  0
INSERT
  8
1
  2
LCBP1
 10
-2
 20
-4
 50
-90
  0
LINE
  8
1
 10
-2
 20
-10
 11
-2
 21
-8
  0
INSERT
  8
1
  2
LCBP1
 10
-2
 20
-8
 50
90
  0
POLYLINE
  8
1
 66
1
  0
VERTEX
  8
1
 10
-34
 20
14
  0
VERTEX
  8
1
 10
34
 20
14
  0
VERTEX
  8
1
 10
34
 20
-14
  0
VERTEX
  8
1
 10
-34
 20
-14
  0
VERTEX
  8
1
 10
-34
 20
14
  0
SEQEND
  8
1
  0
CIRCLE
  8
CONNECTIONS
 10
26
 20
-18
 40
0
  0
CIRCLE
  8
CONNECTIONS
 10
20
 20
-18
 40
0
  0
CIRCLE
  8
CONNECTIONS
 10
9
 20
18
 40
0
  0
CIRCLE
  8
CONNECTIONS
 10
27
 20
18
 40
0
  0
CIRCLE
  8
CONNECTIONS
 10
-27.999964946867
 20
-8
 40
0
  0
CIRCLE
  8
CONNECTIONS
 10
-2
 20
-18
 40
0
  0
CIRCLE
  8
CONNECTIONS
 10
-17.999964946867
 20
-17.8946320760917
 40
0
  0
CIRCLE
  8
CONNECTIONS
 10
-21.999964946867
 20
-18
 40
0
  0
ENDBLK
  8
0
  0
ENDSEC
  0
SECTION
  2
ENTITIES
  0
INSERT
  8
1
  2
B269_00991560
 10
34
 20
18
  0
ENDSEC
  0
EOF
