  0
SECTION
  2
HEADER
  9
$LIMMIN
 10
0
 20
0
  9
$LIMMAX
 10
52.5
 20
74.25
  9
$EXTMIN
 10
0
 20
56
  9
$EXTMAX
 10
0
 20
36
  0
ENDSEC
  0
SECTION
  2
TABLES
  0
TABLE
  2
LTYPE
 70
9
  0
LTYPE
  2
CONTINUOUS
 70
64
  3
Solid line
 72
65
 73
0
 40
0
  0
LTYPE
  2
DASHED
 70
64
  3
__ __ __ __ __ __ __ __ __
 72
65
 73
2
 40
0.75
 49
0.5
 49
-0.25
  0
LTYPE
  2
DOT
 70
64
  3
...........................
 72
65
 73
2
 40
0.25
 49
0
 49
-0.25
  0
LTYPE
  2
DASHDOT
 70
64
  3
__ . __ . __ . __ . __ . __ . 
 72
65
 73
4
 40
1
 49
0.5
 49
-0.25
 49
0
 49
-0.25
  0
ENDTAB
  0
TABLE
  2
LAYER
 70
10
  0
LAYER
  2
1
 70
0
 62
7
  6
CONTINUOUS
  0
LAYER
  2
CONNECTIONS
 70
0
 62
-7
  6
CONTINUOUS
  0
ENDTAB
  0
ENDSEC
  0
SECTION
  2
BLOCKS
  0
BLOCK
  8
0
  2
TRICON
 70
0
 10
0
 20
0
  0
POLYLINE
  8
1
 70
1
 66
1
 40
0.5
 41
0.5
  0
VERTEX
  8
1
 10
-0.25
 20
0
 42
1
  0
VERTEX
  8
1
 10
0.25
 20
0
 42
1
  0
SEQEND
  8
1
  0
ENDBLK
  8
0
  0
BLOCK
  8
0
  2
TRICONSMALL
 70
0
 10
0
 20
0
  0
POLYLINE
  8
1
 70
1
 66
1
 40
0.25
 41
0.25
  0
VERTEX
  8
1
 10
-0.125
 20
0
 42
1
  0
VERTEX
  8
1
 10
0.125
 20
0
 42
1
  0
SEQEND
  8
1
  0
ENDBLK
  8
0
  0
BLOCK
  8
0
  2
TRICONCIRCLE
 70
0
 10
0
 20
0
  0
CIRCLE
  8
1
 10
0
 20
0
 40
0.5
  0
ENDBLK
  8
0
  0
BLOCK
  8
0
  2
LCBP0
 70
0
 10
0
 20
0
  0
LINE
  8
1
 10
0
 20
-0.46875
 11
0
 21
0.46875
  0
ENDBLK
  8
0
  0
BLOCK
  8
0
  2
LCBP1
 70
0
 10
0
 20
0
  0
LINE
  8
1
 10
0
 20
-0.625
 11
0
 21
0.625
  0
ENDBLK
  8
0
  0
BLOCK
  8
0
  2
LCBP2
 70
0
 10
0
 20
0
  0
LINE
  8
1
 10
0
 20
-0.9375
 11
0
 21
0.9375
  0
ENDBLK
  8
0
  0
BLOCK
  8
0
  2
LCA1
 70
0
 10
0
 20
0
  0
SOLID
  8
1
 62
7 
 10
0
 20
0
 11
-1.4
 21
-0.275
 12
-1.4
 22
0.275
 13
-1.4
 23
0.275
  0
ENDBLK
  8
0
  0
BLOCK
  8
0
  2
LCA2
 70
0
 10
0
 20
0
  0
SOLID
  8
1
 62
7 
 10
0
 20
0
 11
-1.65
 21
-0.525
 12
-1.65
 22
0.525
 13
-1.65
 23
0.525
  0
ENDBLK
  8
0
  0
BLOCK
  8
0
  2
LCA3
 70
0
 10
0
 20
0
  0
SOLID
  8
1
 62
7 
 10
0
 20
0
 11
-2.15
 21
-1.15
 12
-2.15
 22
1.15
 13
-2.15
 23
1.15
  0
ENDBLK
  8
0
  0
BLOCK
  8
0
  2
LCA1R
 70
0
 10
0
 20
0
  0
SOLID
  8
1
 62
7 
 10
0
 20
0
 11
1.4
 21
-0.275
 12
1.4
 22
0.275
 13
1.4
 23
0.275
  0
ENDBLK
  8
0
  0
BLOCK
  8
0
  2
LCA2R
 70
0
 10
0
 20
0
  0
SOLID
  8
1
 62
7 
 10
0
 20
0
 11
1.65
 21
-0.525
 12
1.65
 22
0.525
 13
1.65
 23
0.525
  0
ENDBLK
  8
0
  0
BLOCK
  8
0
  2
LCA3R
 70
0
 10
0
 20
0
  0
SOLID
  8
1
 62
7 
 10
0
 20
0
 11
2.15
 21
-1.15
 12
2.15
 22
1.15
 13
2.15
 23
1.15
  0
ENDBLK
  8
0
  0
BLOCK
  8
0
  2
B4016_00991521
 70
0
 10
0
 20
0
  0
POLYLINE
  8
1
  6
DASHDOT
 66
1
  0
VERTEX
  8
1
 10
-24
 20
14
  0
VERTEX
  8
1
 10
24
 20
14
  0
VERTEX
  8
1
 10
24
 20
-14
  0
VERTEX
  8
1
 10
-24
 20
-14
  0
VERTEX
  8
1
 10
-24
 20
14
  0
SEQEND
  8
1
  0
LINE
  8
1
 10
24
 20
-4
 11
28
 21
-4
  0
LINE
  8
1
 10
16
 20
14
 11
16
 21
16
  0
LINE
  8
1
 10
16
 20
-16
 11
16
 21
-14
  0
LINE
  8
1
 10
-28
 20
-4
 11
-24
 21
-4
  0
LINE
  8
1
 10
-14
 20
-18
 11
-14
 21
-14
  0
TEXT
  8
1
 40
2.475
 41
0.75
  1
2
  7
STANDARD
 73
2
 10
25.1584699453552
 20
-0.983606557377025
 11
25.1584699453552
 21
-0.983606557377025
  0
TEXT
  8
1
 40
2.475
 41
0.75
  1
1
  7
STANDARD
 72
2
 10
-24.4655974188913
 20
-2.11554957911929
 11
-24.4655974188913
 21
-2.11554957911929
  0
LINE
  8
1
 10
16
 20
14
 11
16
 21
-14
  0
LINE
  8
1
 10
4
 20
-4
 11
24
 21
-4
  0
LINE
  8
1
 10
-24
 20
-4
 11
-19.6731475285148
 21
-4
  0
LINE
  8
1
 10
-14
 20
-9.65512559402579
 11
-14
 21
-14
  0
LINE
  8
1
 10
-8.35943902953
 20
-4
 11
-4
 21
-4
  0
POLYLINE
  8
1
 70
1
 66
1
 40
0.5
 41
0.5
  0
VERTEX
  8
1
 10
7.75
 20
-4
 42
1
  0
VERTEX
  8
1
 10
8.25
 20
-4
 42
1
  0
SEQEND
  8
1
  0
LINE
  8
1
 10
8
 20
2
 11
8
 21
-4
  0
LINE
  8
1
 10
16
 20
-16
 11
16
 21
-18
  0
INSERT
  8
1
  2
LCBP1
 10
16
 20
-18
 50
-90
  0
LINE
  8
1
 10
16
 20
16
 11
16
 21
18
  0
INSERT
  8
1
  2
LCBP1
 10
16
 20
18
 50
90
  0
POLYLINE
  8
1
 66
1
  0
VERTEX
  8
1
 10
-14.0162932790224
 20
1.65858290495893
  0
VERTEX
  8
1
 10
-19.6731475285148
 20
-3.99827134453342
  0
VERTEX
  8
1
 10
-14.0162932790224
 20
-9.6551255940258
  0
VERTEX
  8
1
 10
-8.35943902953
 20
-3.99827134453342
  0
VERTEX
  8
1
 10
-14.0162932790224
 20
1.65858290495893
  0
SEQEND
  8
1
  0
LINE
  8
1
  6
DASHED
 10
-14.0162791455196
 20
-7.65512559402579
 11
-14.0162791455196
 21
1.65858290495893
  0
LINE
  8
1
 10
-16.0162661522863
 20
-7.65512559402579
 11
-12.0162810198244
 21
-7.65512559402579
  0
POLYLINE
  8
1
 66
1
  0
VERTEX
  8
1
 10
-16.0162661522863
 20
-7.6551527207619
  0
VERTEX
  8
1
 10
-14.0162932790224
 20
-9.6551255940258
  0
VERTEX
  8
1
 10
-12.0162810198244
 20
-7.65511333482772
  0
SEQEND
  8
1
  0
LINE
  8
1
 10
9.76776695296636
 20
4.23223304703364
 11
6.23223304703363
 21
7.76776695296637
  0
INSERT
  8
1
  2
LCA1
 10
6.23223304703363
 20
7.76776695296637
 50
135
  0
CIRCLE
  8
1
 10
8
 20
6
 40
4
  0
POLYLINE
  8
1
 70
1
 66
1
 40
0.5
 41
0.5
  0
VERTEX
  8
1
 10
15.75
 20
-4
 42
1
  0
VERTEX
  8
1
 10
16.25
 20
-4
 42
1
  0
SEQEND
  8
1
  0
POLYLINE
  8
1
 66
1
  0
VERTEX
  8
1
 10
12
 20
-1
  0
VERTEX
  8
1
 10
20
 20
-1
  0
VERTEX
  8
1
 10
20
 20
-7
  0
VERTEX
  8
1
 10
12
 20
-7
  0
VERTEX
  8
1
 10
12
 20
-1
  0
SEQEND
  8
1
  0
LINE
  8
1
 10
-6.44259788264229
 20
3.27036371433004
 11
2.44287357865983
 21
5.72971259368521
  0
INSERT
  8
1
  2
LCA1
 10
2.44287357865983
 20
5.72971259368521
 50
15.4711922908485
  0
POLYLINE
  8
1
 66
1
  0
VERTEX
  8
1
 10
-1.99988891190038
 20
2.0000231433541
  0
VERTEX
  8
1
 10
0.000111088099625789
 20
2.4166898100208
  0
VERTEX
  8
1
 10
-3.99988891190038
 20
3.2500231433541
  0
VERTEX
  8
1
 10
0.000111088099625789
 20
4.08335647668745
  0
VERTEX
  8
1
 10
-3.99988891190038
 20
4.9166898100208
  0
VERTEX
  8
1
 10
0.000111088099625789
 20
5.7500231433541
  0
VERTEX
  8
1
 10
-3.99988891190038
 20
6.5833564766874
  0
VERTEX
  8
1
 10
-1.99988891190038
 20
7.0000231433541
  0
SEQEND
  8
1
  0
POLYLINE
  8
1
 66
1
  0
VERTEX
  8
1
 10
-4
 20
1
  0
VERTEX
  8
1
 10
-6
 20
0
  0
VERTEX
  8
1
 10
-4
 20
-1
  0
SEQEND
  8
1
  0
POLYLINE
  8
1
  6
DOT
 66
1
  0
VERTEX
  8
1
 10
-2
 20
-6
  0
VERTEX
  8
1
 10
-2
 20
-10
  0
VERTEX
  8
1
 10
6
 20
-10
  0
VERTEX
  8
1
 10
6
 20
-6
  0
VERTEX
  8
1
 10
4
 20
-4
  0
SEQEND
  8
1
  0
POLYLINE
  8
1
 66
1
  0
VERTEX
  8
1
 10
-4
 20
-6
  0
VERTEX
  8
1
 10
4
 20
-6
  0
VERTEX
  8
1
 10
4
 20
2
  0
VERTEX
  8
1
 10
-4
 20
2
  0
VERTEX
  8
1
 10
-4
 20
-6
  0
SEQEND
  8
1
  0
LINE
  8
1
 10
4
 20
-4
 11
-4
 21
-4
  0
INSERT
  8
1
  2
LCA1
 10
-4
 20
-4
 50
-180
  0
INSERT
  8
1
  2
LCA1R
 10
4
 20
-4
 50
-180
  0
CIRCLE
  8
CONNECTIONS
 10
28
 20
-4
 40
0
  0
CIRCLE
  8
CONNECTIONS
 10
-28
 20
-4
 40
0
  0
CIRCLE
  8
CONNECTIONS
 10
16
 20
-16
 40
0
  0
CIRCLE
  8
CONNECTIONS
 10
16
 20
16
 40
0
  0
ENDBLK
  8
0
  0
ENDSEC
  0
SECTION
  2
ENTITIES
  0
INSERT
  8
1
  2
B4016_00991521
 10
28
 20
18
  0
ENDSEC
  0
EOF
