  0
SECTION
  2
HEADER
  9
$LIMMIN
 10
0
 20
0
  9
$LIMMAX
 10
52.5
 20
74.25
  9
$EXTMIN
 10
0
 20
60
  9
$EXTMAX
 10
0
 20
32
  0
ENDSEC
  0
SECTION
  2
TABLES
  0
TABLE
  2
LTYPE
 70
9
  0
LTYPE
  2
CONTINUOUS
 70
64
  3
Solid line
 72
65
 73
0
 40
0
  0
LTYPE
  2
DASHED
 70
64
  3
__ __ __ __ __ __ __ __ __
 72
65
 73
2
 40
0.75
 49
0.5
 49
-0.25
  0
LTYPE
  2
DOT
 70
64
  3
...........................
 72
65
 73
2
 40
0.25
 49
0
 49
-0.25
  0
LTYPE
  2
DASHDOT
 70
64
  3
__ . __ . __ . __ . __ . __ . 
 72
65
 73
4
 40
1
 49
0.5
 49
-0.25
 49
0
 49
-0.25
  0
ENDTAB
  0
TABLE
  2
LAYER
 70
10
  0
LAYER
  2
1
 70
0
 62
7
  6
CONTINUOUS
  0
LAYER
  2
CONNECTIONS
 70
0
 62
-7
  6
CONTINUOUS
  0
ENDTAB
  0
ENDSEC
  0
SECTION
  2
BLOCKS
  0
BLOCK
  8
0
  2
TRICON
 70
0
 10
0
 20
0
  0
POLYLINE
  8
1
 70
1
 66
1
 40
0.5
 41
0.5
  0
VERTEX
  8
1
 10
-0.25
 20
0
 42
1
  0
VERTEX
  8
1
 10
0.25
 20
0
 42
1
  0
SEQEND
  8
1
  0
ENDBLK
  8
0
  0
BLOCK
  8
0
  2
TRICONSMALL
 70
0
 10
0
 20
0
  0
POLYLINE
  8
1
 70
1
 66
1
 40
0.25
 41
0.25
  0
VERTEX
  8
1
 10
-0.125
 20
0
 42
1
  0
VERTEX
  8
1
 10
0.125
 20
0
 42
1
  0
SEQEND
  8
1
  0
ENDBLK
  8
0
  0
BLOCK
  8
0
  2
TRICONCIRCLE
 70
0
 10
0
 20
0
  0
CIRCLE
  8
1
 10
0
 20
0
 40
0.5
  0
ENDBLK
  8
0
  0
BLOCK
  8
0
  2
LCBP0
 70
0
 10
0
 20
0
  0
LINE
  8
1
 10
0
 20
-0.46875
 11
0
 21
0.46875
  0
ENDBLK
  8
0
  0
BLOCK
  8
0
  2
LCBP1
 70
0
 10
0
 20
0
  0
LINE
  8
1
 10
0
 20
-0.625
 11
0
 21
0.625
  0
ENDBLK
  8
0
  0
BLOCK
  8
0
  2
LCBP2
 70
0
 10
0
 20
0
  0
LINE
  8
1
 10
0
 20
-0.9375
 11
0
 21
0.9375
  0
ENDBLK
  8
0
  0
BLOCK
  8
0
  2
LCA1
 70
0
 10
0
 20
0
  0
SOLID
  8
1
 62
7 
 10
0
 20
0
 11
-1.4
 21
-0.275
 12
-1.4
 22
0.275
 13
-1.4
 23
0.275
  0
ENDBLK
  8
0
  0
BLOCK
  8
0
  2
LCA2
 70
0
 10
0
 20
0
  0
SOLID
  8
1
 62
7 
 10
0
 20
0
 11
-1.65
 21
-0.525
 12
-1.65
 22
0.525
 13
-1.65
 23
0.525
  0
ENDBLK
  8
0
  0
BLOCK
  8
0
  2
LCA3
 70
0
 10
0
 20
0
  0
SOLID
  8
1
 62
7 
 10
0
 20
0
 11
-2.15
 21
-1.15
 12
-2.15
 22
1.15
 13
-2.15
 23
1.15
  0
ENDBLK
  8
0
  0
BLOCK
  8
0
  2
LCA1R
 70
0
 10
0
 20
0
  0
SOLID
  8
1
 62
7 
 10
0
 20
0
 11
1.4
 21
-0.275
 12
1.4
 22
0.275
 13
1.4
 23
0.275
  0
ENDBLK
  8
0
  0
BLOCK
  8
0
  2
LCA2R
 70
0
 10
0
 20
0
  0
SOLID
  8
1
 62
7 
 10
0
 20
0
 11
1.65
 21
-0.525
 12
1.65
 22
0.525
 13
1.65
 23
0.525
  0
ENDBLK
  8
0
  0
BLOCK
  8
0
  2
LCA3R
 70
0
 10
0
 20
0
  0
SOLID
  8
1
 62
7 
 10
0
 20
0
 11
2.15
 21
-1.15
 12
2.15
 22
1.15
 13
2.15
 23
1.15
  0
ENDBLK
  8
0
  0
BLOCK
  8
0
  2
B3988_00991509
 70
0
 10
0
 20
0
  0
POLYLINE
  8
1
  6
DASHDOT
 66
1
  0
VERTEX
  8
1
 10
-26
 20
16
  0
VERTEX
  8
1
 10
26
 20
16
  0
VERTEX
  8
1
 10
26
 20
-12
  0
VERTEX
  8
1
 10
-26
 20
-12
  0
VERTEX
  8
1
 10
-26
 20
16
  0
SEQEND
  8
1
  0
TEXT
  8
1
 40
2.4
 41
0.75
  1
1
  7
STANDARD
 72
2
 10
-26.4655974188913
 20
-0.153049579119289
 11
-26.4655974188913
 21
-0.153049579119289
  0
TEXT
  8
1
 40
2.4
 41
0.75
  1
2
  7
STANDARD
 73
2
 10
27.1584699453552
 20
1.01639344262297
 11
27.1584699453552
 21
1.01639344262297
  0
LINE
  8
1
 10
26
 20
-2
 11
30
 21
-2
  0
LINE
  8
1
 10
-16
 20
-12
 11
-16
 21
-16
  0
LINE
  8
1
 10
-30
 20
-2
 11
-26
 21
-2
  0
LINE
  8
1
 10
26
 20
-2
 11
21.6337765806252
 21
-2
  0
LINE
  8
1
 10
-26
 20
-2
 11
-21.6485902072146
 21
-2
  0
LINE
  8
1
 10
-16
 20
-7.636025998143
 11
-16
 21
-12
  0
LINE
  8
1
 10
6
 20
4
 11
6
 21
-2
  0
LINE
  8
1
 10
10.3495355268655
 20
-2
 11
2
 21
-2
  0
LINE
  8
1
 10
-6
 20
-2
 11
-10.3672868832838
 21
-2
  0
POLYLINE
  8
1
 70
1
 66
1
 40
0.5
 41
0.5
  0
VERTEX
  8
1
 10
5.75
 20
-2
 42
1
  0
VERTEX
  8
1
 10
6.25
 20
-2
 42
1
  0
SEQEND
  8
1
  0
LINE
  8
1
 10
16.0063897763578
 20
0.35995740149095
 11
16.0063897763578
 21
3.67366590047569
  0
POLYLINE
  8
1
 66
1
  0
VERTEX
  8
1
 10
16.0063897763578
 20
3.67366590047568
  0
VERTEX
  8
1
 10
10.3495355268655
 20
-1.9831883490167
  0
VERTEX
  8
1
 10
16.0063897763578
 20
-7.64004259850908
  0
VERTEX
  8
1
 10
21.6632440258503
 20
-1.9831883490167
  0
VERTEX
  8
1
 10
16.0063897763578
 20
3.67366590047568
  0
SEQEND
  8
1
  0
LINE
  8
1
 10
7.76776695296636
 20
6.23223304703364
 11
4.23223304703363
 21
9.76776695296637
  0
INSERT
  8
1
  2
LCA1
 10
4.23223304703363
 20
9.76776695296637
 50
135
  0
CIRCLE
  8
1
 10
6
 20
8
 40
4
  0
LINE
  8
1
  6
DASHED
 10
-16.0241269992734
 20
-4.13602599814299
 11
-16.0085930350637
 21
3.67765159048334
  0
LINE
  8
1
 10
-17.4028310309828
 20
-4.13601575637678
 11
-16.0241411327762
 21
-5.51470565458335
  0
LINE
  8
1
 10
-16.0241411327762
 20
-5.51470565458335
 11
-14.6454927549662
 21
-4.13605727677336
  0
LINE
  8
1
 10
-12.5241191958403
 20
-4.13602599814299
 11
-19.5241348027065
 21
-4.13602599814299
  0
POLYLINE
  8
1
 66
1
  0
VERTEX
  8
1
 10
-19.5241617884398
 20
-4.13600534247943
  0
VERTEX
  8
1
 10
-16.0241411327762
 20
-7.636025998143
  0
VERTEX
  8
1
 10
-12.5241191958403
 20
-4.13600406120707
  0
VERTEX
  8
1
 10
-12.5241191958403
 20
-4.136025998143
  0
VERTEX
  8
1
 10
-19.5241348027065
 20
-4.136025998143
  0
SEQEND
  8
1
  0
POLYLINE
  8
1
 66
1
  0
VERTEX
  8
1
 10
-16.0241411327762
 20
3.67768250084173
  0
VERTEX
  8
1
 10
-21.6809953822686
 20
-1.97917174865063
  0
VERTEX
  8
1
 10
-16.0241411327762
 20
-7.636025998143
  0
VERTEX
  8
1
 10
-10.3672868832838
 20
-1.97917174865063
  0
VERTEX
  8
1
 10
-16.0241411327762
 20
3.67768250084173
  0
SEQEND
  8
1
  0
LINE
  8
1
 10
-8.44259788264229
 20
5.27036371433004
 11
0.442873578659832
 21
7.72971259368521
  0
INSERT
  8
1
  2
LCA1
 10
0.442873578659832
 20
7.72971259368521
 50
15.4711922908485
  0
POLYLINE
  8
1
 66
1
  0
VERTEX
  8
1
 10
-3.99988891190038
 20
4.0000231433541
  0
VERTEX
  8
1
 10
-1.99988891190037
 20
4.4166898100208
  0
VERTEX
  8
1
 10
-5.99988891190038
 20
5.2500231433541
  0
VERTEX
  8
1
 10
-1.99988891190037
 20
6.08335647668745
  0
VERTEX
  8
1
 10
-5.99988891190038
 20
6.9166898100208
  0
VERTEX
  8
1
 10
-1.99988891190037
 20
7.7500231433541
  0
VERTEX
  8
1
 10
-5.99988891190038
 20
8.5833564766874
  0
VERTEX
  8
1
 10
-3.99988891190038
 20
9.0000231433541
  0
SEQEND
  8
1
  0
POLYLINE
  8
1
 66
1
  0
VERTEX
  8
1
 10
-6
 20
3
  0
VERTEX
  8
1
 10
-8
 20
2
  0
VERTEX
  8
1
 10
-6
 20
1
  0
SEQEND
  8
1
  0
POLYLINE
  8
1
  6
DOT
 66
1
  0
VERTEX
  8
1
 10
-4
 20
-4
  0
VERTEX
  8
1
 10
-4
 20
-8
  0
VERTEX
  8
1
 10
4
 20
-8
  0
VERTEX
  8
1
 10
4
 20
-4
  0
VERTEX
  8
1
 10
2
 20
-2
  0
SEQEND
  8
1
  0
POLYLINE
  8
1
 66
1
  0
VERTEX
  8
1
 10
-6
 20
-4
  0
VERTEX
  8
1
 10
2
 20
-4
  0
VERTEX
  8
1
 10
2
 20
4
  0
VERTEX
  8
1
 10
-6
 20
4
  0
VERTEX
  8
1
 10
-6
 20
-4
  0
SEQEND
  8
1
  0
LINE
  8
1
 10
2
 20
-2
 11
-6
 21
-2
  0
INSERT
  8
1
  2
LCA1
 10
-6
 20
-2
 50
-180
  0
INSERT
  8
1
  2
LCA1R
 10
2
 20
-2
 50
-180
  0
CIRCLE
  8
CONNECTIONS
 10
30
 20
-2
 40
0
  0
CIRCLE
  8
CONNECTIONS
 10
-30
 20
-2
 40
0
  0
ENDBLK
  8
0
  0
ENDSEC
  0
SECTION
  2
ENTITIES
  0
INSERT
  8
1
  2
B3988_00991509
 10
30
 20
16
  0
ENDSEC
  0
EOF
