  0
SECTION
  2
HEADER
  9
$LIMMIN
 10
0
 20
0
  9
$LIMMAX
 10
52.5
 20
74.25
  9
$EXTMIN
 10
0
 20
104
  9
$EXTMAX
 10
0
 20
36
  0
ENDSEC
  0
SECTION
  2
TABLES
  0
TABLE
  2
LTYPE
 70
9
  0
LTYPE
  2
CONTINUOUS
 70
64
  3
Solid line
 72
65
 73
0
 40
0
  0
LTYPE
  2
DASHED
 70
64
  3
__ __ __ __ __ __ __ __ __
 72
65
 73
2
 40
0.75
 49
0.5
 49
-0.25
  0
LTYPE
  2
DOT
 70
64
  3
...........................
 72
65
 73
2
 40
0.25
 49
0
 49
-0.25
  0
LTYPE
  2
DASHDOT
 70
64
  3
__ . __ . __ . __ . __ . __ . 
 72
65
 73
4
 40
1
 49
0.5
 49
-0.25
 49
0
 49
-0.25
  0
ENDTAB
  0
TABLE
  2
LAYER
 70
10
  0
LAYER
  2
1
 70
0
 62
7
  6
CONTINUOUS
  0
LAYER
  2
CONNECTIONS
 70
0
 62
-7
  6
CONTINUOUS
  0
ENDTAB
  0
ENDSEC
  0
SECTION
  2
BLOCKS
  0
BLOCK
  8
0
  2
TRICON
 70
0
 10
0
 20
0
  0
POLYLINE
  8
1
 70
1
 66
1
 40
0.5
 41
0.5
  0
VERTEX
  8
1
 10
-0.25
 20
0
 42
1
  0
VERTEX
  8
1
 10
0.25
 20
0
 42
1
  0
SEQEND
  8
1
  0
ENDBLK
  8
0
  0
BLOCK
  8
0
  2
TRICONSMALL
 70
0
 10
0
 20
0
  0
POLYLINE
  8
1
 70
1
 66
1
 40
0.25
 41
0.25
  0
VERTEX
  8
1
 10
-0.125
 20
0
 42
1
  0
VERTEX
  8
1
 10
0.125
 20
0
 42
1
  0
SEQEND
  8
1
  0
ENDBLK
  8
0
  0
BLOCK
  8
0
  2
TRICONCIRCLE
 70
0
 10
0
 20
0
  0
CIRCLE
  8
1
 10
0
 20
0
 40
0.5
  0
ENDBLK
  8
0
  0
BLOCK
  8
0
  2
LCBP0
 70
0
 10
0
 20
0
  0
LINE
  8
1
 10
0
 20
-0.46875
 11
0
 21
0.46875
  0
ENDBLK
  8
0
  0
BLOCK
  8
0
  2
LCBP1
 70
0
 10
0
 20
0
  0
LINE
  8
1
 10
0
 20
-0.625
 11
0
 21
0.625
  0
ENDBLK
  8
0
  0
BLOCK
  8
0
  2
LCBP2
 70
0
 10
0
 20
0
  0
LINE
  8
1
 10
0
 20
-0.9375
 11
0
 21
0.9375
  0
ENDBLK
  8
0
  0
BLOCK
  8
0
  2
LCA1
 70
0
 10
0
 20
0
  0
SOLID
  8
1
 62
7 
 10
0
 20
0
 11
-1.4
 21
-0.275
 12
-1.4
 22
0.275
 13
-1.4
 23
0.275
  0
ENDBLK
  8
0
  0
BLOCK
  8
0
  2
LCA2
 70
0
 10
0
 20
0
  0
SOLID
  8
1
 62
7 
 10
0
 20
0
 11
-1.65
 21
-0.525
 12
-1.65
 22
0.525
 13
-1.65
 23
0.525
  0
ENDBLK
  8
0
  0
BLOCK
  8
0
  2
LCA3
 70
0
 10
0
 20
0
  0
SOLID
  8
1
 62
7 
 10
0
 20
0
 11
-2.15
 21
-1.15
 12
-2.15
 22
1.15
 13
-2.15
 23
1.15
  0
ENDBLK
  8
0
  0
BLOCK
  8
0
  2
LCA1R
 70
0
 10
0
 20
0
  0
SOLID
  8
1
 62
7 
 10
0
 20
0
 11
1.4
 21
-0.275
 12
1.4
 22
0.275
 13
1.4
 23
0.275
  0
ENDBLK
  8
0
  0
BLOCK
  8
0
  2
LCA2R
 70
0
 10
0
 20
0
  0
SOLID
  8
1
 62
7 
 10
0
 20
0
 11
1.65
 21
-0.525
 12
1.65
 22
0.525
 13
1.65
 23
0.525
  0
ENDBLK
  8
0
  0
BLOCK
  8
0
  2
LCA3R
 70
0
 10
0
 20
0
  0
SOLID
  8
1
 62
7 
 10
0
 20
0
 11
2.15
 21
-1.15
 12
2.15
 22
1.15
 13
2.15
 23
1.15
  0
ENDBLK
  8
0
  0
BLOCK
  8
0
  2
B11595_00991508
 70
0
 10
0
 20
0
  0
POLYLINE
  8
1
 66
1
  0
VERTEX
  8
1
 10
-48
 20
14
  0
VERTEX
  8
1
 10
48
 20
14
  0
VERTEX
  8
1
 10
48
 20
-18
  0
VERTEX
  8
1
 10
-48
 20
-18
  0
VERTEX
  8
1
 10
-48
 20
14
  0
SEQEND
  8
1
  0
TEXT
  8
1
 40
2.475
 41
0.75
  1
2
  7
STANDARD
 72
2
 73
2
 10
-27.1347789764404
 20
17
 11
-27.1347789764404
 21
17
  0
TEXT
  8
1
 40
2.475
 41
0.75
  1
1
  7
STANDARD
 73
2
 10
50
 20
-4
 11
50
 21
-4
  0
LINE
  8
1
 10
48
 20
0
 11
52
 21
0
  0
TEXT
  8
1
 40
2.475
 41
0.75
  1
2
  7
STANDARD
 72
2
 73
2
 10
38.3652210235596
 20
17
 11
38.3652210235596
 21
17
  0
TEXT
  8
1
 40
2.475
 41
0.75
  1
2
  7
STANDARD
 72
2
 73
2
 10
16.3652210235596
 20
17
 11
16.3652210235596
 21
17
  0
TEXT
  8
1
 40
2.475
 41
0.75
  1
2
  7
STANDARD
 72
2
 73
2
 10
-5.63477897644043
 20
17
 11
-5.63477897644043
 21
17
  0
TEXT
  8
1
 40
2.475
 41
0.75
  1
1
  7
STANDARD
 72
2
 73
2
 10
-50
 20
-4
 11
-50
 21
-4
  0
LINE
  8
1
 10
-48
 20
0
 11
-52
 21
0
  0
LINE
  8
1
 10
40
 20
14
 11
40
 21
18
  0
LINE
  8
1
 10
18
 20
14
 11
18
 21
18
  0
LINE
  8
1
 10
-4
 20
14
 11
-4
 21
18
  0
LINE
  8
1
 10
-26
 20
14
 11
-26
 21
18
  0
LINE
  8
1
 10
44
 20
0
 11
48
 21
0
  0
LINE
  8
1
 10
44
 20
0
 11
44
 21
-14
  0
LINE
  8
1
 10
-44
 20
-14
 11
44
 21
-14
  0
LINE
  8
1
 10
-40
 20
-10
 11
-38
 21
-10
  0
LINE
  8
1
 10
-18
 20
-10
 11
-16
 21
-10
  0
LINE
  8
1
 10
4
 20
-10
 11
6
 21
-10
  0
LINE
  8
1
 10
26
 20
-10
 11
28
 21
-10
  0
POLYLINE
  8
1
 70
1
 66
1
 40
0.5
 41
0.5
  0
VERTEX
  8
1
 10
39.75
 20
0
 42
1
  0
VERTEX
  8
1
 10
40.25
 20
0
 42
1
  0
SEQEND
  8
1
  0
POLYLINE
  8
1
 70
1
 66
1
 40
0.5
 41
0.5
  0
VERTEX
  8
1
 10
25.75
 20
0
 42
1
  0
VERTEX
  8
1
 10
26.25
 20
0
 42
1
  0
SEQEND
  8
1
  0
LINE
  8
1
 10
40
 20
-10
 11
37
 21
-10
  0
LINE
  8
1
 10
40
 20
14
 11
40
 21
-10
  0
LINE
  8
1
 10
26
 20
0
 11
26
 21
-10
  0
LINE
  8
1
 10
40
 20
0
 11
36
 21
0
  0
LINE
  8
1
 10
22
 20
0
 11
28
 21
0
  0
POLYLINE
  8
1
 70
1
 66
1
 40
0.5
 41
0.5
  0
VERTEX
  8
1
 10
17.75
 20
0
 42
1
  0
VERTEX
  8
1
 10
18.25
 20
0
 42
1
  0
SEQEND
  8
1
  0
POLYLINE
  8
1
 70
1
 66
1
 40
0.5
 41
0.5
  0
VERTEX
  8
1
 10
3.75
 20
0
 42
1
  0
VERTEX
  8
1
 10
4.25
 20
0
 42
1
  0
SEQEND
  8
1
  0
LINE
  8
1
 10
18
 20
-10
 11
15
 21
-10
  0
LINE
  8
1
 10
18
 20
14
 11
18
 21
-10
  0
LINE
  8
1
 10
4
 20
0
 11
4
 21
-10
  0
LINE
  8
1
 10
18
 20
0
 11
14
 21
0
  0
LINE
  8
1
 10
0
 20
0
 11
6
 21
0
  0
POLYLINE
  8
1
 70
1
 66
1
 40
0.5
 41
0.5
  0
VERTEX
  8
1
 10
-4.25
 20
0
 42
1
  0
VERTEX
  8
1
 10
-3.75
 20
0
 42
1
  0
SEQEND
  8
1
  0
POLYLINE
  8
1
 70
1
 66
1
 40
0.5
 41
0.5
  0
VERTEX
  8
1
 10
-18.25
 20
0
 42
1
  0
VERTEX
  8
1
 10
-17.75
 20
0
 42
1
  0
SEQEND
  8
1
  0
LINE
  8
1
 10
-4
 20
-10
 11
-7
 21
-10
  0
LINE
  8
1
 10
-4
 20
14
 11
-4
 21
-10
  0
LINE
  8
1
 10
-18
 20
0
 11
-18
 21
-10
  0
LINE
  8
1
 10
-4
 20
0
 11
-8
 21
0
  0
LINE
  8
1
 10
-22
 20
0
 11
-16
 21
0
  0
LINE
  8
1
 10
-26
 20
-10
 11
-29
 21
-10
  0
POLYLINE
  8
1
 70
1
 66
1
 40
0.5
 41
0.5
  0
VERTEX
  8
1
 10
-26.25
 20
0
 42
1
  0
VERTEX
  8
1
 10
-25.75
 20
0
 42
1
  0
SEQEND
  8
1
  0
LINE
  8
1
 10
-26
 20
0
 11
-30
 21
0
  0
LINE
  8
1
 10
-26
 20
0
 11
-26
 21
14
  0
LINE
  8
1
 10
-26
 20
0
 11
-26
 21
-10
  0
LINE
  8
1
 10
-40
 20
0
 11
-40
 21
-10
  0
POLYLINE
  8
1
 70
1
 66
1
 40
0.5
 41
0.5
  0
VERTEX
  8
1
 10
-40.25
 20
0
 42
1
  0
VERTEX
  8
1
 10
-39.75
 20
0
 42
1
  0
SEQEND
  8
1
  0
LINE
  8
1
 10
-44
 20
0
 11
-38
 21
0
  0
LINE
  8
1
 10
-48
 20
0
 11
-44
 21
0
  0
POLYLINE
  8
1
 70
1
 66
1
 40
0.5
 41
0.5
  0
VERTEX
  8
1
 10
21.75
 20
-14
 42
1
  0
VERTEX
  8
1
 10
22.25
 20
-14
 42
1
  0
SEQEND
  8
1
  0
POLYLINE
  8
1
 70
1
 66
1
 40
0.5
 41
0.5
  0
VERTEX
  8
1
 10
-0.25
 20
-14
 42
1
  0
VERTEX
  8
1
 10
0.25
 20
-14
 42
1
  0
SEQEND
  8
1
  0
LINE
  8
1
 10
0
 20
0
 11
0
 21
-14
  0
LINE
  8
1
 10
22
 20
0
 11
22
 21
-14
  0
LINE
  8
1
 10
-22
 20
0
 11
-22
 21
-14
  0
LINE
  8
1
 10
-44
 20
0
 11
-44
 21
-14
  0
POLYLINE
  8
1
 70
1
 66
1
 40
0.5
 41
0.5
  0
VERTEX
  8
1
 10
-22.25
 20
-14
 42
1
  0
VERTEX
  8
1
 10
-21.75
 20
-14
 42
1
  0
SEQEND
  8
1
  0
POLYLINE
  8
1
 70
1
 66
1
 40
0.5
 41
0.5
  0
VERTEX
  8
1
 10
-44.25
 20
0
 42
1
  0
VERTEX
  8
1
 10
-43.75
 20
0
 42
1
  0
SEQEND
  8
1
  0
LINE
  8
1
 10
31.4
 20
-10
 11
28
 21
-10
  0
LINE
  8
1
 10
37
 20
-10
 11
34
 21
-10
  0
POLYLINE
  8
1
 66
1
  0
VERTEX
  8
1
 10
32
 20
-12
  0
VERTEX
  8
1
 10
34
 20
-10
  0
VERTEX
  8
1
 10
32
 20
-8
  0
SEQEND
  8
1
  0
CIRCLE
  8
1
 10
32.5333333333333
 20
-10
 40
1
  0
LINE
  8
1
 10
9.39999999999998
 20
-10
 11
6
 21
-10
  0
LINE
  8
1
 10
15
 20
-10
 11
12
 21
-10
  0
POLYLINE
  8
1
 66
1
  0
VERTEX
  8
1
 10
10
 20
-12
  0
VERTEX
  8
1
 10
12
 20
-10
  0
VERTEX
  8
1
 10
10
 20
-8
  0
SEQEND
  8
1
  0
CIRCLE
  8
1
 10
10.5333333333333
 20
-10
 40
1
  0
LINE
  8
1
 10
-12.6
 20
-10
 11
-16
 21
-10
  0
LINE
  8
1
 10
-7
 20
-10
 11
-10
 21
-10
  0
POLYLINE
  8
1
 66
1
  0
VERTEX
  8
1
 10
-12
 20
-12
  0
VERTEX
  8
1
 10
-10
 20
-10
  0
VERTEX
  8
1
 10
-12
 20
-8
  0
SEQEND
  8
1
  0
CIRCLE
  8
1
 10
-11.4666666666667
 20
-10
 40
1
  0
LINE
  8
1
 10
-34.7333333333334
 20
-10
 11
-38.1333333333333
 21
-10
  0
LINE
  8
1
 10
-29.1333333333333
 20
-10
 11
-32.1333333333333
 21
-10
  0
POLYLINE
  8
1
 66
1
  0
VERTEX
  8
1
 10
-34.1333333333333
 20
-12
  0
VERTEX
  8
1
 10
-32.1333333333333
 20
-10
  0
VERTEX
  8
1
 10
-34.1333333333333
 20
-8
  0
SEQEND
  8
1
  0
CIRCLE
  8
1
 10
-33.6
 20
-10
 40
1
  0
LINE
  8
1
 10
25.5550660170445
 20
7.27829222480391
 11
34.4449331506217
 21
9.72170425459834
  0
INSERT
  8
1
  2
LCA1
 10
34.4449331506217
 20
9.72170425459834
 50
15.3684528725217
  0
POLYLINE
  8
1
 66
1
  0
VERTEX
  8
1
 10
30
 20
6
  0
VERTEX
  8
1
 10
32
 20
6.4166666666667
  0
VERTEX
  8
1
 10
28
 20
7.25
  0
VERTEX
  8
1
 10
32
 20
8.08333333333337
  0
VERTEX
  8
1
 10
28
 20
8.9166666666667
  0
VERTEX
  8
1
 10
32
 20
9.75
  0
VERTEX
  8
1
 10
28
 20
10.5833333333333
  0
VERTEX
  8
1
 10
30
 20
11
  0
SEQEND
  8
1
  0
POLYLINE
  8
1
 66
1
  0
VERTEX
  8
1
 10
28
 20
5
  0
VERTEX
  8
1
 10
26
 20
4
  0
VERTEX
  8
1
 10
28
 20
3
  0
SEQEND
  8
1
  0
POLYLINE
  8
1
  6
DOT
 66
1
  0
VERTEX
  8
1
 10
30
 20
-2
  0
VERTEX
  8
1
 10
30
 20
-6
  0
VERTEX
  8
1
 10
38
 20
-6
  0
VERTEX
  8
1
 10
38
 20
-2
  0
VERTEX
  8
1
 10
36
 20
0
  0
SEQEND
  8
1
  0
POLYLINE
  8
1
 66
1
  0
VERTEX
  8
1
 10
28
 20
-2
  0
VERTEX
  8
1
 10
36
 20
-2
  0
VERTEX
  8
1
 10
36
 20
6
  0
VERTEX
  8
1
 10
28
 20
6
  0
VERTEX
  8
1
 10
28
 20
-2
  0
SEQEND
  8
1
  0
LINE
  8
1
 10
36
 20
0
 11
28
 21
0
  0
INSERT
  8
1
  2
LCA1
 10
28
 20
0
 50
-180
  0
INSERT
  8
1
  2
LCA1R
 10
36
 20
0
 50
-180
  0
LINE
  8
1
 10
3.55506601704452
 20
7.27829222480391
 11
12.4449331506217
 21
9.72170425459834
  0
INSERT
  8
1
  2
LCA1
 10
12.4449331506217
 20
9.72170425459834
 50
15.3684528725217
  0
POLYLINE
  8
1
 66
1
  0
VERTEX
  8
1
 10
8
 20
6
  0
VERTEX
  8
1
 10
10
 20
6.4166666666667
  0
VERTEX
  8
1
 10
6
 20
7.25
  0
VERTEX
  8
1
 10
10
 20
8.08333333333337
  0
VERTEX
  8
1
 10
6
 20
8.9166666666667
  0
VERTEX
  8
1
 10
10
 20
9.75
  0
VERTEX
  8
1
 10
6
 20
10.5833333333333
  0
VERTEX
  8
1
 10
8
 20
11
  0
SEQEND
  8
1
  0
POLYLINE
  8
1
 66
1
  0
VERTEX
  8
1
 10
6
 20
5
  0
VERTEX
  8
1
 10
4
 20
4
  0
VERTEX
  8
1
 10
6
 20
3
  0
SEQEND
  8
1
  0
POLYLINE
  8
1
  6
DOT
 66
1
  0
VERTEX
  8
1
 10
8
 20
-2
  0
VERTEX
  8
1
 10
8
 20
-6
  0
VERTEX
  8
1
 10
16
 20
-6
  0
VERTEX
  8
1
 10
16
 20
-2
  0
VERTEX
  8
1
 10
14
 20
0
  0
SEQEND
  8
1
  0
POLYLINE
  8
1
 66
1
  0
VERTEX
  8
1
 10
6
 20
-2
  0
VERTEX
  8
1
 10
14
 20
-2
  0
VERTEX
  8
1
 10
14
 20
6
  0
VERTEX
  8
1
 10
6
 20
6
  0
VERTEX
  8
1
 10
6
 20
-2
  0
SEQEND
  8
1
  0
LINE
  8
1
 10
14
 20
0
 11
6
 21
0
  0
INSERT
  8
1
  2
LCA1
 10
6
 20
0
 50
-180
  0
INSERT
  8
1
  2
LCA1R
 10
14
 20
0
 50
-180
  0
LINE
  8
1
 10
-18.4449339829555
 20
7.27829222480391
 11
-9.55506684937829
 21
9.72170425459834
  0
INSERT
  8
1
  2
LCA1
 10
-9.55506684937829
 20
9.72170425459834
 50
15.3684528725217
  0
POLYLINE
  8
1
 66
1
  0
VERTEX
  8
1
 10
-14
 20
6
  0
VERTEX
  8
1
 10
-12
 20
6.4166666666667
  0
VERTEX
  8
1
 10
-16
 20
7.25
  0
VERTEX
  8
1
 10
-12
 20
8.08333333333337
  0
VERTEX
  8
1
 10
-16
 20
8.9166666666667
  0
VERTEX
  8
1
 10
-12
 20
9.75
  0
VERTEX
  8
1
 10
-16
 20
10.5833333333333
  0
VERTEX
  8
1
 10
-14
 20
11
  0
SEQEND
  8
1
  0
POLYLINE
  8
1
 66
1
  0
VERTEX
  8
1
 10
-16
 20
5
  0
VERTEX
  8
1
 10
-18
 20
4
  0
VERTEX
  8
1
 10
-16
 20
3
  0
SEQEND
  8
1
  0
POLYLINE
  8
1
  6
DOT
 66
1
  0
VERTEX
  8
1
 10
-14
 20
-2
  0
VERTEX
  8
1
 10
-14
 20
-6
  0
VERTEX
  8
1
 10
-6
 20
-6
  0
VERTEX
  8
1
 10
-6
 20
-2
  0
VERTEX
  8
1
 10
-8
 20
0
  0
SEQEND
  8
1
  0
POLYLINE
  8
1
 66
1
  0
VERTEX
  8
1
 10
-16
 20
-2
  0
VERTEX
  8
1
 10
-8
 20
-2
  0
VERTEX
  8
1
 10
-8
 20
6
  0
VERTEX
  8
1
 10
-16
 20
6
  0
VERTEX
  8
1
 10
-16
 20
-2
  0
SEQEND
  8
1
  0
LINE
  8
1
 10
-8
 20
0
 11
-16
 21
0
  0
INSERT
  8
1
  2
LCA1
 10
-16
 20
0
 50
-180
  0
INSERT
  8
1
  2
LCA1R
 10
-8
 20
0
 50
-180
  0
LINE
  8
1
 10
-40.4449339829555
 20
7.27829222480391
 11
-31.5550668493783
 21
9.72170425459834
  0
INSERT
  8
1
  2
LCA1
 10
-31.5550668493783
 20
9.72170425459834
 50
15.3684528725217
  0
POLYLINE
  8
1
 66
1
  0
VERTEX
  8
1
 10
-36
 20
6
  0
VERTEX
  8
1
 10
-34
 20
6.4166666666667
  0
VERTEX
  8
1
 10
-38
 20
7.25
  0
VERTEX
  8
1
 10
-34
 20
8.08333333333337
  0
VERTEX
  8
1
 10
-38
 20
8.9166666666667
  0
VERTEX
  8
1
 10
-34
 20
9.75
  0
VERTEX
  8
1
 10
-38
 20
10.5833333333333
  0
VERTEX
  8
1
 10
-36
 20
11
  0
SEQEND
  8
1
  0
POLYLINE
  8
1
 66
1
  0
VERTEX
  8
1
 10
-38
 20
5
  0
VERTEX
  8
1
 10
-40
 20
4
  0
VERTEX
  8
1
 10
-38
 20
3
  0
SEQEND
  8
1
  0
POLYLINE
  8
1
  6
DOT
 66
1
  0
VERTEX
  8
1
 10
-36
 20
-2
  0
VERTEX
  8
1
 10
-36
 20
-6
  0
VERTEX
  8
1
 10
-28
 20
-6
  0
VERTEX
  8
1
 10
-28
 20
-2
  0
VERTEX
  8
1
 10
-30
 20
0
  0
SEQEND
  8
1
  0
POLYLINE
  8
1
 66
1
  0
VERTEX
  8
1
 10
-38
 20
-2
  0
VERTEX
  8
1
 10
-30
 20
-2
  0
VERTEX
  8
1
 10
-30
 20
6
  0
VERTEX
  8
1
 10
-38
 20
6
  0
VERTEX
  8
1
 10
-38
 20
-2
  0
SEQEND
  8
1
  0
LINE
  8
1
 10
-30
 20
0
 11
-38
 21
0
  0
INSERT
  8
1
  2
LCA1
 10
-38
 20
0
 50
-180
  0
INSERT
  8
1
  2
LCA1R
 10
-30
 20
0
 50
-180
  0
CIRCLE
  8
CONNECTIONS
 10
-52
 20
0
 40
0
  0
CIRCLE
  8
CONNECTIONS
 10
-26
 20
18
 40
0
  0
CIRCLE
  8
CONNECTIONS
 10
-4
 20
18
 40
0
  0
CIRCLE
  8
CONNECTIONS
 10
18
 20
18
 40
0
  0
CIRCLE
  8
CONNECTIONS
 10
40
 20
18
 40
0
  0
CIRCLE
  8
CONNECTIONS
 10
52
 20
0
 40
0
  0
ENDBLK
  8
0
  0
ENDSEC
  0
SECTION
  2
ENTITIES
  0
INSERT
  8
1
  2
B11595_00991508
 10
52
 20
18
  0
ENDSEC
  0
EOF
