  0
SECTION
  2
HEADER
  9
$LIMMIN
 10
0
 20
0
  9
$LIMMAX
 10
52.5
 20
74.25
  9
$EXTMIN
 10
0
 20
72
  9
$EXTMAX
 10
0
 20
37
  0
ENDSEC
  0
SECTION
  2
TABLES
  0
TABLE
  2
LTYPE
 70
9
  0
LTYPE
  2
CONTINUOUS
 70
64
  3
Solid line
 72
65
 73
0
 40
0
  0
LTYPE
  2
DASHED
 70
64
  3
__ __ __ __ __ __ __ __ __
 72
65
 73
2
 40
0.75
 49
0.5
 49
-0.25
  0
LTYPE
  2
DOT
 70
64
  3
...........................
 72
65
 73
2
 40
0.25
 49
0
 49
-0.25
  0
LTYPE
  2
DASHDOT
 70
64
  3
__ . __ . __ . __ . __ . __ . 
 72
65
 73
4
 40
1
 49
0.5
 49
-0.25
 49
0
 49
-0.25
  0
ENDTAB
  0
TABLE
  2
LAYER
 70
10
  0
LAYER
  2
1
 70
0
 62
7
  6
CONTINUOUS
  0
LAYER
  2
CONNECTIONS
 70
0
 62
-7
  6
CONTINUOUS
  0
ENDTAB
  0
ENDSEC
  0
SECTION
  2
BLOCKS
  0
BLOCK
  8
0
  2
TRICON
 70
0
 10
0
 20
0
  0
POLYLINE
  8
1
 70
1
 66
1
 40
0.5
 41
0.5
  0
VERTEX
  8
1
 10
-0.25
 20
0
 42
1
  0
VERTEX
  8
1
 10
0.25
 20
0
 42
1
  0
SEQEND
  8
1
  0
ENDBLK
  8
0
  0
BLOCK
  8
0
  2
TRICONSMALL
 70
0
 10
0
 20
0
  0
POLYLINE
  8
1
 70
1
 66
1
 40
0.25
 41
0.25
  0
VERTEX
  8
1
 10
-0.125
 20
0
 42
1
  0
VERTEX
  8
1
 10
0.125
 20
0
 42
1
  0
SEQEND
  8
1
  0
ENDBLK
  8
0
  0
BLOCK
  8
0
  2
TRICONCIRCLE
 70
0
 10
0
 20
0
  0
CIRCLE
  8
1
 10
0
 20
0
 40
0.5
  0
ENDBLK
  8
0
  0
BLOCK
  8
0
  2
LCBP0
 70
0
 10
0
 20
0
  0
LINE
  8
1
 10
0
 20
-0.46875
 11
0
 21
0.46875
  0
ENDBLK
  8
0
  0
BLOCK
  8
0
  2
LCBP1
 70
0
 10
0
 20
0
  0
LINE
  8
1
 10
0
 20
-0.625
 11
0
 21
0.625
  0
ENDBLK
  8
0
  0
BLOCK
  8
0
  2
LCBP2
 70
0
 10
0
 20
0
  0
LINE
  8
1
 10
0
 20
-0.9375
 11
0
 21
0.9375
  0
ENDBLK
  8
0
  0
BLOCK
  8
0
  2
LCA1
 70
0
 10
0
 20
0
  0
SOLID
  8
1
 62
7 
 10
0
 20
0
 11
-1.4
 21
-0.275
 12
-1.4
 22
0.275
 13
-1.4
 23
0.275
  0
ENDBLK
  8
0
  0
BLOCK
  8
0
  2
LCA2
 70
0
 10
0
 20
0
  0
SOLID
  8
1
 62
7 
 10
0
 20
0
 11
-1.65
 21
-0.525
 12
-1.65
 22
0.525
 13
-1.65
 23
0.525
  0
ENDBLK
  8
0
  0
BLOCK
  8
0
  2
LCA3
 70
0
 10
0
 20
0
  0
SOLID
  8
1
 62
7 
 10
0
 20
0
 11
-2.15
 21
-1.15
 12
-2.15
 22
1.15
 13
-2.15
 23
1.15
  0
ENDBLK
  8
0
  0
BLOCK
  8
0
  2
LCA1R
 70
0
 10
0
 20
0
  0
SOLID
  8
1
 62
7 
 10
0
 20
0
 11
1.4
 21
-0.275
 12
1.4
 22
0.275
 13
1.4
 23
0.275
  0
ENDBLK
  8
0
  0
BLOCK
  8
0
  2
LCA2R
 70
0
 10
0
 20
0
  0
SOLID
  8
1
 62
7 
 10
0
 20
0
 11
1.65
 21
-0.525
 12
1.65
 22
0.525
 13
1.65
 23
0.525
  0
ENDBLK
  8
0
  0
BLOCK
  8
0
  2
LCA3R
 70
0
 10
0
 20
0
  0
SOLID
  8
1
 62
7 
 10
0
 20
0
 11
2.15
 21
-1.15
 12
2.15
 22
1.15
 13
2.15
 23
1.15
  0
ENDBLK
  8
0
  0
BLOCK
  8
0
  2
B3925_00991504
 70
0
 10
0
 20
0
  0
POLYLINE
  8
1
  6
DASHDOT
 66
1
  0
VERTEX
  8
1
 10
-32
 20
18.5
  0
VERTEX
  8
1
 10
32
 20
18.5
  0
VERTEX
  8
1
 10
32
 20
-14.5
  0
VERTEX
  8
1
 10
-32
 20
-14.5
  0
VERTEX
  8
1
 10
-32
 20
18.5
  0
SEQEND
  8
1
  0
TEXT
  8
1
 40
2.475
 41
0.75
  1
1
  7
STANDARD
 72
2
 73
2
 10
-32.4655974188913
 20
-1.48081698303978
 11
-32.4655974188913
 21
-1.48081698303978
  0
LINE
  8
1
 10
-36
 20
-4.5
 11
-32
 21
-4.5
  0
LINE
  8
1
 10
-22
 20
-14.5
 11
-22
 21
-18.5
  0
TEXT
  8
1
 40
2.475
 41
0.75
  1
2
  7
STANDARD
 73
2
 10
33.1584699453552
 20
-1.48360655737702
 11
33.1584699453552
 21
-1.48360655737702
  0
LINE
  8
1
 10
8
 20
-14.5
 11
8
 21
-16.5
  0
LINE
  8
1
 10
32
 20
-4.5
 11
36
 21
-4.5
  0
LINE
  8
1
 10
27.6632440258504
 20
-4.5
 11
32
 21
-4.5
  0
LINE
  8
1
 10
8
 20
3.5
 11
8
 21
-14.5
  0
LINE
  8
1
 10
-22
 20
-10.1989247311828
 11
-22
 21
-14.5
  0
LINE
  8
1
 10
-32
 20
-4.5
 11
-27.6545905256667
 21
-4.5
  0
LINE
  8
1
 10
-4
 20
-4.5
 11
16.3495355268655
 21
-4.5
  0
LINE
  8
1
 10
-16.3408820266819
 20
-4.5
 11
-12
 21
-4.5
  0
POLYLINE
  8
1
 70
1
 66
1
 40
0.5
 41
0.5
  0
VERTEX
  8
1
 10
-0.25
 20
-4.5
 42
1
  0
VERTEX
  8
1
 10
0.25
 20
-4.5
 42
1
  0
SEQEND
  8
1
  0
LINE
  8
1
 10
0
 20
1.5
 11
0
 21
-4.5
  0
LINE
  8
1
 10
8
 20
-16.5
 11
8
 21
-18.5
  0
INSERT
  8
1
  2
LCBP1
 10
8
 20
-18.5
 50
-90
  0
LINE
  8
1
 10
22.0063897763578
 20
-2.14004259850905
 11
22.0063897763578
 21
1.17366590047569
  0
POLYLINE
  8
1
 66
1
  0
VERTEX
  8
1
 10
22.0063897763578
 20
1.17366590047568
  0
VERTEX
  8
1
 10
16.3495355268655
 20
-4.4831883490167
  0
VERTEX
  8
1
 10
22.0063897763578
 20
-10.140042598509
  0
VERTEX
  8
1
 10
27.6632440258502
 20
-4.4831883490167
  0
VERTEX
  8
1
 10
22.0063897763578
 20
1.17366590047568
  0
SEQEND
  8
1
  0
POLYLINE
  8
1
 66
1
  0
VERTEX
  8
1
 10
-21.9977362761743
 20
1.11478376780192
  0
VERTEX
  8
1
 10
-27.6545905256667
 20
-4.54207048169042
  0
VERTEX
  8
1
 10
-21.9977362761743
 20
-10.1989247311827
  0
VERTEX
  8
1
 10
-16.3408820266819
 20
-4.54207048169042
  0
VERTEX
  8
1
 10
-21.9977362761743
 20
1.11478376780192
  0
SEQEND
  8
1
  0
LINE
  8
1
  6
DASHED
 10
-21.9977221426715
 20
-8.1989247311828
 11
-21.9977221426715
 21
1.11478376780192
  0
LINE
  8
1
 10
-23.9977091494382
 20
-8.1989247311828
 11
-19.9977240169762
 21
-8.1989247311828
  0
LINE
  8
1
 10
1.76776695296636
 20
3.73223304703364
 11
-1.76776695296637
 21
7.26776695296637
  0
INSERT
  8
1
  2
LCA1
 10
-1.76776695296637
 20
7.26776695296637
 50
135
  0
CIRCLE
  8
1
 10
0
 20
5.5
 40
4
  0
LINE
  8
1
 10
12.5010515247108
 20
11
 11
3.50105152471083
 21
13
  0
INSERT
  8
1
  2
LCA1
 10
3.50105152471083
 20
13
 50
167.471192290848
  0
POLYLINE
  8
1
 66
1
  0
VERTEX
  8
1
 10
8.00105152471075
 20
14.5
  0
VERTEX
  8
1
 10
10.0010515247107
 20
14.0833333333333
  0
VERTEX
  8
1
 10
6.00105152471075
 20
13.25
  0
VERTEX
  8
1
 10
10.0010515247107
 20
12.4166666666667
  0
VERTEX
  8
1
 10
6.00105152471075
 20
11.5833333333333
  0
VERTEX
  8
1
 10
10.0010515247107
 20
10.75
  0
VERTEX
  8
1
 10
6.00105152471075
 20
9.91666666666667
  0
VERTEX
  8
1
 10
8.00105152471075
 20
9.5
  0
SEQEND
  8
1
  0
POLYLINE
  8
1
 66
1
  0
VERTEX
  8
1
 10
8.30105152471075
 20
4.65
  0
VERTEX
  8
1
 10
8.30105152471075
 20
5.65
  0
VERTEX
  8
1
 10
7.30105152471075
 20
8.15
  0
SEQEND
  8
1
  0
LINE
  8
1
 10
8.30105152471084
 20
7.34999999999999
 11
8.30105152471084
 21
8.34999999999999
  0
POLYLINE
  8
1
 66
1
  0
VERTEX
  8
1
 10
5.00105152471075
 20
3.5
  0
VERTEX
  8
1
 10
11.0010515247107
 20
3.5
  0
VERTEX
  8
1
 10
11.0010515247107
 20
9.5
  0
VERTEX
  8
1
 10
5.00105152471075
 20
9.5
  0
VERTEX
  8
1
 10
5.00105152471075
 20
3.5
  0
SEQEND
  8
1
  0
POLYLINE
  8
1
 70
1
 66
1
 40
0.5
 41
0.5
  0
VERTEX
  8
1
 10
7.75
 20
-4.5
 42
1
  0
VERTEX
  8
1
 10
8.25
 20
-4.5
 42
1
  0
SEQEND
  8
1
  0
POLYLINE
  8
1
 66
1
  0
VERTEX
  8
1
 10
4
 20
-1.5
  0
VERTEX
  8
1
 10
12
 20
-1.5
  0
VERTEX
  8
1
 10
12
 20
-7.5
  0
VERTEX
  8
1
 10
4
 20
-7.5
  0
VERTEX
  8
1
 10
4
 20
-1.5
  0
SEQEND
  8
1
  0
LINE
  8
1
 10
-14.4425978826423
 20
2.77036371433004
 11
-5.55712642134017
 21
5.22971259368521
  0
INSERT
  8
1
  2
LCA1
 10
-5.55712642134017
 20
5.22971259368521
 50
15.4711922908485
  0
POLYLINE
  8
1
 66
1
  0
VERTEX
  8
1
 10
-9.99988891190037
 20
1.5000231433541
  0
VERTEX
  8
1
 10
-7.99988891190037
 20
1.9166898100208
  0
VERTEX
  8
1
 10
-11.9998889119004
 20
2.7500231433541
  0
VERTEX
  8
1
 10
-7.99988891190037
 20
3.58335647668745
  0
VERTEX
  8
1
 10
-11.9998889119004
 20
4.4166898100208
  0
VERTEX
  8
1
 10
-7.99988891190037
 20
5.2500231433541
  0
VERTEX
  8
1
 10
-11.9998889119004
 20
6.0833564766874
  0
VERTEX
  8
1
 10
-9.99988891190037
 20
6.5000231433541
  0
SEQEND
  8
1
  0
POLYLINE
  8
1
 66
1
  0
VERTEX
  8
1
 10
-12
 20
0.5
  0
VERTEX
  8
1
 10
-14
 20
-0.5
  0
VERTEX
  8
1
 10
-12
 20
-1.5
  0
SEQEND
  8
1
  0
POLYLINE
  8
1
  6
DOT
 66
1
  0
VERTEX
  8
1
 10
-10
 20
-6.5
  0
VERTEX
  8
1
 10
-10
 20
-10.5
  0
VERTEX
  8
1
 10
-2
 20
-10.5
  0
VERTEX
  8
1
 10
-2
 20
-6.5
  0
VERTEX
  8
1
 10
-4
 20
-4.5
  0
SEQEND
  8
1
  0
POLYLINE
  8
1
 66
1
  0
VERTEX
  8
1
 10
-12
 20
-6.5
  0
VERTEX
  8
1
 10
-4
 20
-6.5
  0
VERTEX
  8
1
 10
-4
 20
1.5
  0
VERTEX
  8
1
 10
-12
 20
1.5
  0
VERTEX
  8
1
 10
-12
 20
-6.5
  0
SEQEND
  8
1
  0
LINE
  8
1
 10
-4
 20
-4.5
 11
-12
 21
-4.5
  0
INSERT
  8
1
  2
LCA1
 10
-12
 20
-4.5
 50
-180
  0
INSERT
  8
1
  2
LCA1R
 10
-4
 20
-4.5
 50
-180
  0
CIRCLE
  8
CONNECTIONS
 10
8
 20
-16.5
 40
0
  0
CIRCLE
  8
CONNECTIONS
 10
36
 20
-4.5
 40
0
  0
CIRCLE
  8
CONNECTIONS
 10
-36
 20
-4.5
 40
0
  0
CIRCLE
  8
CONNECTIONS
 10
8.00090085229808
 20
9.5
 40
0
  0
ENDBLK
  8
0
  0
ENDSEC
  0
SECTION
  2
ENTITIES
  0
INSERT
  8
1
  2
B3925_00991504
 10
36
 20
18.5
  0
ENDSEC
  0
EOF
