  0
SECTION
  2
HEADER
  9
$LIMMIN
 10
0
 20
0
  9
$LIMMAX
 10
52.5
 20
74.25
  9
$EXTMIN
 10
0
 20
36
  9
$EXTMAX
 10
0
 20
60
  0
ENDSEC
  0
SECTION
  2
TABLES
  0
TABLE
  2
LTYPE
 70
9
  0
LTYPE
  2
CONTINUOUS
 70
64
  3
Solid line
 72
65
 73
0
 40
0
  0
LTYPE
  2
DASHED
 70
64
  3
__ __ __ __ __ __ __ __ __
 72
65
 73
2
 40
0.75
 49
0.5
 49
-0.25
  0
LTYPE
  2
DOT
 70
64
  3
...........................
 72
65
 73
2
 40
0.25
 49
0
 49
-0.25
  0
LTYPE
  2
DASHDOT
 70
64
  3
__ . __ . __ . __ . __ . __ . 
 72
65
 73
4
 40
1
 49
0.5
 49
-0.25
 49
0
 49
-0.25
  0
ENDTAB
  0
TABLE
  2
LAYER
 70
10
  0
LAYER
  2
1
 70
0
 62
7
  6
CONTINUOUS
  0
LAYER
  2
CONNECTIONS
 70
0
 62
-7
  6
CONTINUOUS
  0
ENDTAB
  0
ENDSEC
  0
SECTION
  2
BLOCKS
  0
BLOCK
  8
0
  2
TRICON
 70
0
 10
0
 20
0
  0
POLYLINE
  8
1
 70
1
 66
1
 40
0.5
 41
0.5
  0
VERTEX
  8
1
 10
-0.25
 20
0
 42
1
  0
VERTEX
  8
1
 10
0.25
 20
0
 42
1
  0
SEQEND
  8
1
  0
ENDBLK
  8
0
  0
BLOCK
  8
0
  2
TRICONSMALL
 70
0
 10
0
 20
0
  0
POLYLINE
  8
1
 70
1
 66
1
 40
0.25
 41
0.25
  0
VERTEX
  8
1
 10
-0.125
 20
0
 42
1
  0
VERTEX
  8
1
 10
0.125
 20
0
 42
1
  0
SEQEND
  8
1
  0
ENDBLK
  8
0
  0
BLOCK
  8
0
  2
TRICONCIRCLE
 70
0
 10
0
 20
0
  0
CIRCLE
  8
1
 10
0
 20
0
 40
0.5
  0
ENDBLK
  8
0
  0
BLOCK
  8
0
  2
LCBP0
 70
0
 10
0
 20
0
  0
LINE
  8
1
 10
0
 20
-0.46875
 11
0
 21
0.46875
  0
ENDBLK
  8
0
  0
BLOCK
  8
0
  2
LCBP1
 70
0
 10
0
 20
0
  0
LINE
  8
1
 10
0
 20
-0.625
 11
0
 21
0.625
  0
ENDBLK
  8
0
  0
BLOCK
  8
0
  2
LCBP2
 70
0
 10
0
 20
0
  0
LINE
  8
1
 10
0
 20
-0.9375
 11
0
 21
0.9375
  0
ENDBLK
  8
0
  0
BLOCK
  8
0
  2
LCA1
 70
0
 10
0
 20
0
  0
SOLID
  8
1
 62
7 
 10
0
 20
0
 11
-1.4
 21
-0.275
 12
-1.4
 22
0.275
 13
-1.4
 23
0.275
  0
ENDBLK
  8
0
  0
BLOCK
  8
0
  2
LCA2
 70
0
 10
0
 20
0
  0
SOLID
  8
1
 62
7 
 10
0
 20
0
 11
-1.65
 21
-0.525
 12
-1.65
 22
0.525
 13
-1.65
 23
0.525
  0
ENDBLK
  8
0
  0
BLOCK
  8
0
  2
LCA3
 70
0
 10
0
 20
0
  0
SOLID
  8
1
 62
7 
 10
0
 20
0
 11
-2.15
 21
-1.15
 12
-2.15
 22
1.15
 13
-2.15
 23
1.15
  0
ENDBLK
  8
0
  0
BLOCK
  8
0
  2
LCA1R
 70
0
 10
0
 20
0
  0
SOLID
  8
1
 62
7 
 10
0
 20
0
 11
1.4
 21
-0.275
 12
1.4
 22
0.275
 13
1.4
 23
0.275
  0
ENDBLK
  8
0
  0
BLOCK
  8
0
  2
LCA2R
 70
0
 10
0
 20
0
  0
SOLID
  8
1
 62
7 
 10
0
 20
0
 11
1.65
 21
-0.525
 12
1.65
 22
0.525
 13
1.65
 23
0.525
  0
ENDBLK
  8
0
  0
BLOCK
  8
0
  2
LCA3R
 70
0
 10
0
 20
0
  0
SOLID
  8
1
 62
7 
 10
0
 20
0
 11
2.15
 21
-1.15
 12
2.15
 22
1.15
 13
2.15
 23
1.15
  0
ENDBLK
  8
0
  0
BLOCK
  8
0
  2
B537_00991501
 70
0
 10
0
 20
0
  0
POLYLINE
  8
1
  6
DASHDOT
 66
1
  0
VERTEX
  8
1
 10
-18
 20
30
  0
VERTEX
  8
1
 10
18
 20
30
  0
VERTEX
  8
1
 10
18
 20
-30
  0
VERTEX
  8
1
 10
-18
 20
-30
  0
VERTEX
  8
1
 10
-18
 20
30
  0
SEQEND
  8
1
  0
TEXT
  8
1
 40
2.475
 41
0.75
  1
1
  7
STANDARD
 73
2
 10
-18
 20
-16.1173708920188
 11
-18
 21
-16.1173708920188
  0
TEXT
  8
1
 40
2.475
 41
0.75
  1
2
  7
STANDARD
 73
2
 10
14
 20
-16.1173708920188
 11
14
 21
-16.1173708920188
  0
LINE
  8
1
 10
-10
 20
4
 11
-14
 21
4
  0
LINE
  8
1
 10
2
 20
24
 11
-14
 21
24
  0
LINE
  8
1
 10
-14
 20
24
 11
-14
 21
4
  0
LINE
  8
1
 10
14
 20
24
 11
14
 21
-18
  0
LINE
  8
1
 10
10
 20
-18
 11
18
 21
-18
  0
LINE
  8
1
 10
-18
 20
-18
 11
2
 21
-18
  0
POLYLINE
  8
1
 70
1
 66
1
 40
0.5
 41
0.5
  0
VERTEX
  8
1
 10
-14.25
 20
4
 42
1
  0
VERTEX
  8
1
 10
-13.75
 20
4
 42
1
  0
SEQEND
  8
1
  0
POLYLINE
  8
1
 70
1
 66
1
 40
0.5
 41
0.5
  0
VERTEX
  8
1
 10
13.75
 20
-18
 42
1
  0
VERTEX
  8
1
 10
14.25
 20
-18
 42
1
  0
SEQEND
  8
1
  0
POLYLINE
  8
1
 70
1
 66
1
 40
0.5
 41
0.5
  0
VERTEX
  8
1
 10
-14.25
 20
-18
 42
1
  0
VERTEX
  8
1
 10
-13.75
 20
-18
 42
1
  0
SEQEND
  8
1
  0
POLYLINE
  8
1
 66
1
  0
VERTEX
  8
1
 10
4
 20
0
  0
VERTEX
  8
1
 10
4
 20
4
  0
VERTEX
  8
1
 10
-2
 20
4
  0
SEQEND
  8
1
  0
POLYLINE
  8
1
 66
1
  0
VERTEX
  8
1
 10
-18
 20
-18
  0
VERTEX
  8
1
 10
-14
 20
-18
  0
VERTEX
  8
1
 10
-14
 20
4
  0
SEQEND
  8
1
  0
LINE
  8
1
 10
6.75735931288071
 20
20.6433982822018
 11
9.5857864376269
 21
27.7144660940673
  0
INSERT
  8
1
  2
LCA1
 10
9.5857864376269
 20
27.7144660940673
 50
68.1985905136482
  0
LINE
  8
1
 10
14
 20
24
 11
2
 21
24
  0
ARC
  8
1
 10
8
 20
14
 40
9
 50
70.528596800055
 51
109.471050579339
  0
ARC
  8
1
 10
8
 20
34
 40
9
 50
250.52865870751
 51
289.47139531546
  0
LINE
  8
1
 10
6
 20
0
 11
4
 21
-3.46410161513775
  0
LINE
  8
1
 10
2
 20
0
 11
4
 21
-3.46410161513775
  0
POLYLINE
  8
1
 66
1
  0
VERTEX
  8
1
 10
6
 20
0
  0
VERTEX
  8
1
 10
2
 20
0
  0
VERTEX
  8
1
 10
2
 20
-6
  0
VERTEX
  8
1
 10
6
 20
-6
  0
VERTEX
  8
1
 10
6
 20
0
  0
SEQEND
  8
1
  0
POLYLINE
  8
1
 66
1
  0
VERTEX
  8
1
 10
4
 20
-27
  0
VERTEX
  8
1
 10
2
 20
-26.5833333333332
  0
VERTEX
  8
1
 10
6
 20
-25.75
  0
VERTEX
  8
1
 10
2
 20
-24.9166666666668
  0
VERTEX
  8
1
 10
6
 20
-24.0833333333332
  0
VERTEX
  8
1
 10
2
 20
-23.25
  0
VERTEX
  8
1
 10
6
 20
-22.4166666666668
  0
VERTEX
  8
1
 10
4
 20
-22
  0
SEQEND
  8
1
  0
POLYLINE
  8
1
 66
1
  0
VERTEX
  8
1
 10
10
 20
-14
  0
VERTEX
  8
1
 10
2
 20
-14
  0
VERTEX
  8
1
 10
2
 20
-22
  0
VERTEX
  8
1
 10
10
 20
-22
  0
VERTEX
  8
1
 10
10
 20
-14
  0
SEQEND
  8
1
  0
LINE
  8
1
 10
2
 20
-10
 11
10
 21
-10
  0
INSERT
  8
1
  2
LCA1
 10
10
 20
-10
 50
0
  0
POLYLINE
  8
1
 66
1
  0
VERTEX
  8
1
 10
10
 20
-6
  0
VERTEX
  8
1
 10
2
 20
-6
  0
VERTEX
  8
1
 10
2
 20
-14
  0
VERTEX
  8
1
 10
10
 20
-14
  0
VERTEX
  8
1
 10
10
 20
-6
  0
SEQEND
  8
1
  0
LINE
  8
1
 10
10
 20
-18
 11
8
 21
-18
  0
INSERT
  8
1
  2
LCBP1
 10
8
 20
-18
 50
-180
  0
LINE
  8
1
 10
2
 20
-18
 11
4
 21
-18
  0
INSERT
  8
1
  2
LCBP1
 10
4
 20
-18
 50
0
  0
POLYLINE
  8
1
 66
1
  0
VERTEX
  8
1
 10
10
 20
-14
  0
VERTEX
  8
1
 10
2
 20
-14
  0
VERTEX
  8
1
 10
2
 20
-22
  0
VERTEX
  8
1
 10
10
 20
-22
  0
VERTEX
  8
1
 10
10
 20
-14
  0
SEQEND
  8
1
  0
LINE
  8
1
 10
-10
 20
18
 11
-6
 21
16
  0
POLYLINE
  8
1
 66
1
  0
VERTEX
  8
1
 10
-10
 20
1
  0
VERTEX
  8
1
 10
-12
 20
0
  0
VERTEX
  8
1
 10
-10
 20
-1
  0
SEQEND
  8
1
  0
LINE
  8
1
 10
-2.36088154269972
 20
16.4490358126722
 11
-0.757575757575761
 21
16.4490358126722
  0
LINE
  8
1
 10
-2.9988358556461
 20
13.9984478075281
 11
-2.9988358556461
 21
15.7058595265813
  0
LINE
  8
1
 10
-2.9988358556461
 20
17.1804423748545
 11
-2.9988358556461
 21
18.9266589057043
  0
POLYLINE
  8
1
 66
1
  0
VERTEX
  8
1
 10
-3
 20
17.7067326348467
  0
VERTEX
  8
1
 10
-3
 20
17.2067326348467
  0
VERTEX
  8
1
 10
-4.2990381056767
 20
16.4567326348467
  0
VERTEX
  8
1
 10
-3
 20
15.7067326348467
  0
VERTEX
  8
1
 10
-3
 20
14.043504082129
  0
SEQEND
  8
1
  0
LINE
  8
1
 10
-5
 20
14.0241397949063
 11
-5
 21
18.9134652696934
  0
LINE
  8
1
 10
-5.5
 20
18.9134652696934
 11
-2.5
 21
18.9134652696934
  0
POLYLINE
  8
1
 66
1
  0
VERTEX
  8
1
 10
-2
 20
14
  0
VERTEX
  8
1
 10
-10
 20
14
  0
VERTEX
  8
1
 10
-10
 20
6
  0
VERTEX
  8
1
 10
-2
 20
6
  0
VERTEX
  8
1
 10
-2
 20
14
  0
SEQEND
  8
1
  0
LINE
  8
1
 10
-10
 20
8
 11
-8
 21
8
  0
INSERT
  8
1
  2
LCBP1
 10
-8
 20
8
 50
0
  0
LINE
  8
1
 10
-10
 20
12
 11
-2
 21
12
  0
INSERT
  8
1
  2
LCA1
 10
-2
 20
12
 50
0
  0
LINE
  8
1
 10
-10
 20
4
 11
-8
 21
4
  0
INSERT
  8
1
  2
LCBP1
 10
-8
 20
4
 50
0
  0
POLYLINE
  8
1
 66
1
  0
VERTEX
  8
1
 10
-2
 20
6
  0
VERTEX
  8
1
 10
-10
 20
6
  0
VERTEX
  8
1
 10
-10
 20
-2
  0
VERTEX
  8
1
 10
-2
 20
-2
  0
VERTEX
  8
1
 10
-2
 20
6
  0
SEQEND
  8
1
  0
LINE
  8
1
 10
-2
 20
4
 11
-10
 21
0
  0
INSERT
  8
1
  2
LCA1
 10
-10
 20
0
 50
-153.434948822922
  0
POLYLINE
  8
1
 66
1
  0
VERTEX
  8
1
 10
-6
 20
20
  0
VERTEX
  8
1
 10
-10
 20
20
  0
VERTEX
  8
1
 10
-10
 20
14
  0
VERTEX
  8
1
 10
-6
 20
14
  0
VERTEX
  8
1
 10
-6
 20
20
  0
SEQEND
  8
1
  0
POLYLINE
  8
1
 66
1
  0
VERTEX
  8
1
 10
-8
 20
-7
  0
VERTEX
  8
1
 10
-10
 20
-6.58333333333325
  0
VERTEX
  8
1
 10
-6
 20
-5.75
  0
VERTEX
  8
1
 10
-10
 20
-4.91666666666675
  0
VERTEX
  8
1
 10
-6
 20
-4.08333333333325
  0
VERTEX
  8
1
 10
-10
 20
-3.25
  0
VERTEX
  8
1
 10
-6
 20
-2.41666666666675
  0
VERTEX
  8
1
 10
-8
 20
-2
  0
SEQEND
  8
1
  0
CIRCLE
  8
CONNECTIONS
 10
-18
 20
-18
 40
0
  0
CIRCLE
  8
CONNECTIONS
 10
18
 20
-18
 40
0
  0
CIRCLE
  8
CONNECTIONS
 10
-8
 20
20
 40
0
  0
ENDBLK
  8
0
  0
ENDSEC
  0
SECTION
  2
ENTITIES
  0
INSERT
  8
1
  2
B537_00991501
 10
18
 20
30
  0
ENDSEC
  0
EOF
