  0
SECTION
  2
HEADER
  9
$LIMMIN
 10
0
 20
0
  9
$LIMMAX
 10
52.5
 20
74.25
  9
$EXTMIN
 10
0
 20
23
  9
$EXTMAX
 10
0
 20
16
  0
ENDSEC
  0
SECTION
  2
TABLES
  0
TABLE
  2
LTYPE
 70
9
  0
LTYPE
  2
CONTINUOUS
 70
64
  3
Solid line
 72
65
 73
0
 40
0
  0
LTYPE
  2
DASHED
 70
64
  3
__ __ __ __ __ __ __ __ __
 72
65
 73
2
 40
0.75
 49
0.5
 49
-0.25
  0
LTYPE
  2
DOT
 70
64
  3
...........................
 72
65
 73
2
 40
0.25
 49
0
 49
-0.25
  0
LTYPE
  2
DASHDOT
 70
64
  3
__ . __ . __ . __ . __ . __ . 
 72
65
 73
4
 40
1
 49
0.5
 49
-0.25
 49
0
 49
-0.25
  0
ENDTAB
  0
TABLE
  2
LAYER
 70
10
  0
LAYER
  2
1
 70
0
 62
7
  6
CONTINUOUS
  0
LAYER
  2
CONNECTIONS
 70
0
 62
-7
  6
CONTINUOUS
  0
ENDTAB
  0
ENDSEC
  0
SECTION
  2
BLOCKS
  0
BLOCK
  8
0
  2
TRICON
 70
0
 10
0
 20
0
  0
POLYLINE
  8
1
 70
1
 66
1
 40
0.5
 41
0.5
  0
VERTEX
  8
1
 10
-0.25
 20
0
 42
1
  0
VERTEX
  8
1
 10
0.25
 20
0
 42
1
  0
SEQEND
  8
1
  0
ENDBLK
  8
0
  0
BLOCK
  8
0
  2
TRICONSMALL
 70
0
 10
0
 20
0
  0
POLYLINE
  8
1
 70
1
 66
1
 40
0.25
 41
0.25
  0
VERTEX
  8
1
 10
-0.125
 20
0
 42
1
  0
VERTEX
  8
1
 10
0.125
 20
0
 42
1
  0
SEQEND
  8
1
  0
ENDBLK
  8
0
  0
BLOCK
  8
0
  2
TRICONCIRCLE
 70
0
 10
0
 20
0
  0
CIRCLE
  8
1
 10
0
 20
0
 40
0.5
  0
ENDBLK
  8
0
  0
BLOCK
  8
0
  2
LCBP0
 70
0
 10
0
 20
0
  0
LINE
  8
1
 10
0
 20
-0.46875
 11
0
 21
0.46875
  0
ENDBLK
  8
0
  0
BLOCK
  8
0
  2
LCBP1
 70
0
 10
0
 20
0
  0
LINE
  8
1
 10
0
 20
-0.625
 11
0
 21
0.625
  0
ENDBLK
  8
0
  0
BLOCK
  8
0
  2
LCBP2
 70
0
 10
0
 20
0
  0
LINE
  8
1
 10
0
 20
-0.9375
 11
0
 21
0.9375
  0
ENDBLK
  8
0
  0
BLOCK
  8
0
  2
LCA1
 70
0
 10
0
 20
0
  0
SOLID
  8
1
 62
7 
 10
0
 20
0
 11
-1.4
 21
-0.275
 12
-1.4
 22
0.275
 13
-1.4
 23
0.275
  0
ENDBLK
  8
0
  0
BLOCK
  8
0
  2
LCA2
 70
0
 10
0
 20
0
  0
SOLID
  8
1
 62
7 
 10
0
 20
0
 11
-1.65
 21
-0.525
 12
-1.65
 22
0.525
 13
-1.65
 23
0.525
  0
ENDBLK
  8
0
  0
BLOCK
  8
0
  2
LCA3
 70
0
 10
0
 20
0
  0
SOLID
  8
1
 62
7 
 10
0
 20
0
 11
-2.15
 21
-1.15
 12
-2.15
 22
1.15
 13
-2.15
 23
1.15
  0
ENDBLK
  8
0
  0
BLOCK
  8
0
  2
LCA1R
 70
0
 10
0
 20
0
  0
SOLID
  8
1
 62
7 
 10
0
 20
0
 11
1.4
 21
-0.275
 12
1.4
 22
0.275
 13
1.4
 23
0.275
  0
ENDBLK
  8
0
  0
BLOCK
  8
0
  2
LCA2R
 70
0
 10
0
 20
0
  0
SOLID
  8
1
 62
7 
 10
0
 20
0
 11
1.65
 21
-0.525
 12
1.65
 22
0.525
 13
1.65
 23
0.525
  0
ENDBLK
  8
0
  0
BLOCK
  8
0
  2
LCA3R
 70
0
 10
0
 20
0
  0
SOLID
  8
1
 62
7 
 10
0
 20
0
 11
2.15
 21
-1.15
 12
2.15
 22
1.15
 13
2.15
 23
1.15
  0
ENDBLK
  8
0
  0
BLOCK
  8
0
  2
B468_00991472
 70
0
 10
0
 20
0
  0
TEXT
  8
1
 40
2.475
 41
0.75
  1
1
  7
STANDARD
 10
2.41524823506673
 20
5.2375
  0
TEXT
  8
1
 40
2.475
 41
0.75
  1
4
  7
STANDARD
 10
5.01524823506673
 20
-8.5625
  0
TEXT
  8
1
 40
2.475
 41
0.75
  1
2
  7
STANDARD
 72
2
 10
0.5
 20
-8.7625
 11
0.5
 21
-8.7625
  0
LINE
  8
1
 10
2.5
 20
8
 11
2.5
 21
3
  0
LINE
  8
1
 10
0.5
 20
-3
 11
0.5
 21
-8
  0
LINE
  8
1
 10
4.5
 20
-3
 11
4.5
 21
-8
  0
POLYLINE
  8
1
 66
1
  0
VERTEX
  8
1
 10
11.5
 20
0
  0
VERTEX
  8
1
 10
11.0833333333333
 20
-2
  0
VERTEX
  8
1
 10
10.25
 20
2
  0
VERTEX
  8
1
 10
9.41666666666668
 20
-2
  0
VERTEX
  8
1
 10
8.58333333333332
 20
2
  0
VERTEX
  8
1
 10
7.75
 20
-2
  0
VERTEX
  8
1
 10
6.91666666666668
 20
2
  0
VERTEX
  8
1
 10
6.5
 20
0
  0
SEQEND
  8
1
  0
LINE
  8
1
 10
7.77032556032241
 20
-4.44273573065106
 11
10.2296744396776
 21
4.44273573065106
  0
INSERT
  8
1
  2
LCA1
 10
10.2296744396776
 20
4.44273573065106
 50
74.5288077091515
  0
LINE
  8
1
 10
-5.49999999999306
 20
-7.51835257991236E-06
 11
-1.5
 21
-7.51835257991236E-06
  0
LINE
  8
1
 10
-8.96408859296212
 20
0
 11
-11.5
 21
0
  0
LINE
  8
1
 10
-8.96408859296212
 20
2
 11
-8.96408859296212
 21
-2
  0
LINE
  8
1
 10
-8.96408859296212
 20
2
 11
-5.49998697782436
 21
0
  0
LINE
  8
1
 10
-8.96408859296212
 20
-2
 11
-5.49998697782436
 21
0
  0
LINE
  8
1
 10
2.22264990197237
 20
1.08397485295855
 11
0.777350098060178
 21
-1.08397485290974
  0
LINE
  8
1
 10
2.5
 20
2
 11
2.5
 21
3
  0
LINE
  8
1
 10
4.5
 20
-2
 11
4.5
 21
-3
  0
LINE
  8
1
 10
0.5
 20
-2
 11
0.5
 21
-3
  0
CIRCLE
  8
1
 10
2.5
 20
1.5
 40
0.5
  0
CIRCLE
  8
1
 10
4.5
 20
-1.5
 40
0.5
  0
CIRCLE
  8
1
 10
0.5
 20
-1.5
 40
0.5
  0
POLYLINE
  8
1
 66
1
  0
VERTEX
  8
1
 10
-1.5
 20
3
  0
VERTEX
  8
1
 10
6.5
 20
3
  0
VERTEX
  8
1
 10
6.5
 20
-3
  0
VERTEX
  8
1
 10
-1.5
 20
-3
  0
VERTEX
  8
1
 10
-1.5
 20
3
  0
SEQEND
  8
1
  0
CIRCLE
  8
CONNECTIONS
 10
2.5
 20
8
 40
0
  0
CIRCLE
  8
CONNECTIONS
 10
0.5
 20
-8
 40
0
  0
CIRCLE
  8
CONNECTIONS
 10
4.5
 20
-8
 40
0
  0
CIRCLE
  8
CONNECTIONS
 10
-11.4999869778244
 20
1.50367051598247E-05
 40
0
  0
ENDBLK
  8
0
  0
ENDSEC
  0
SECTION
  2
ENTITIES
  0
INSERT
  8
1
  2
B468_00991472
 10
11.5
 20
8
  0
ENDSEC
  0
EOF
