  0
SECTION
  2
HEADER
  9
$LIMMIN
 10
0
 20
0
  9
$LIMMAX
 10
52.5
 20
74.25
  9
$EXTMIN
 10
0
 20
26.0955281257629
  9
$EXTMAX
 10
0
 20
14.3722326755524
  0
ENDSEC
  0
SECTION
  2
TABLES
  0
TABLE
  2
LTYPE
 70
9
  0
LTYPE
  2
CONTINUOUS
 70
64
  3
Solid line
 72
65
 73
0
 40
0
  0
LTYPE
  2
DASHED
 70
64
  3
__ __ __ __ __ __ __ __ __
 72
65
 73
2
 40
0.75
 49
0.5
 49
-0.25
  0
LTYPE
  2
DOT
 70
64
  3
...........................
 72
65
 73
2
 40
0.25
 49
0
 49
-0.25
  0
LTYPE
  2
DASHDOT
 70
64
  3
__ . __ . __ . __ . __ . __ . 
 72
65
 73
4
 40
1
 49
0.5
 49
-0.25
 49
0
 49
-0.25
  0
ENDTAB
  0
TABLE
  2
LAYER
 70
10
  0
LAYER
  2
1
 70
0
 62
7
  6
CONTINUOUS
  0
LAYER
  2
CONNECTIONS
 70
0
 62
-7
  6
CONTINUOUS
  0
ENDTAB
  0
ENDSEC
  0
SECTION
  2
BLOCKS
  0
BLOCK
  8
0
  2
TRICON
 70
0
 10
0
 20
0
  0
POLYLINE
  8
1
 70
1
 66
1
 40
0.5
 41
0.5
  0
VERTEX
  8
1
 10
-0.25
 20
0
 42
1
  0
VERTEX
  8
1
 10
0.25
 20
0
 42
1
  0
SEQEND
  8
1
  0
ENDBLK
  8
0
  0
BLOCK
  8
0
  2
TRICONSMALL
 70
0
 10
0
 20
0
  0
POLYLINE
  8
1
 70
1
 66
1
 40
0.25
 41
0.25
  0
VERTEX
  8
1
 10
-0.125
 20
0
 42
1
  0
VERTEX
  8
1
 10
0.125
 20
0
 42
1
  0
SEQEND
  8
1
  0
ENDBLK
  8
0
  0
BLOCK
  8
0
  2
TRICONCIRCLE
 70
0
 10
0
 20
0
  0
CIRCLE
  8
1
 10
0
 20
0
 40
0.5
  0
ENDBLK
  8
0
  0
BLOCK
  8
0
  2
LCBP0
 70
0
 10
0
 20
0
  0
LINE
  8
1
 10
0
 20
-0.46875
 11
0
 21
0.46875
  0
ENDBLK
  8
0
  0
BLOCK
  8
0
  2
LCBP1
 70
0
 10
0
 20
0
  0
LINE
  8
1
 10
0
 20
-0.625
 11
0
 21
0.625
  0
ENDBLK
  8
0
  0
BLOCK
  8
0
  2
LCBP2
 70
0
 10
0
 20
0
  0
LINE
  8
1
 10
0
 20
-0.9375
 11
0
 21
0.9375
  0
ENDBLK
  8
0
  0
BLOCK
  8
0
  2
LCA1
 70
0
 10
0
 20
0
  0
SOLID
  8
1
 62
7 
 10
0
 20
0
 11
-1.4
 21
-0.275
 12
-1.4
 22
0.275
 13
-1.4
 23
0.275
  0
ENDBLK
  8
0
  0
BLOCK
  8
0
  2
LCA2
 70
0
 10
0
 20
0
  0
SOLID
  8
1
 62
7 
 10
0
 20
0
 11
-1.65
 21
-0.525
 12
-1.65
 22
0.525
 13
-1.65
 23
0.525
  0
ENDBLK
  8
0
  0
BLOCK
  8
0
  2
LCA3
 70
0
 10
0
 20
0
  0
SOLID
  8
1
 62
7 
 10
0
 20
0
 11
-2.15
 21
-1.15
 12
-2.15
 22
1.15
 13
-2.15
 23
1.15
  0
ENDBLK
  8
0
  0
BLOCK
  8
0
  2
LCA1R
 70
0
 10
0
 20
0
  0
SOLID
  8
1
 62
7 
 10
0
 20
0
 11
1.4
 21
-0.275
 12
1.4
 22
0.275
 13
1.4
 23
0.275
  0
ENDBLK
  8
0
  0
BLOCK
  8
0
  2
LCA2R
 70
0
 10
0
 20
0
  0
SOLID
  8
1
 62
7 
 10
0
 20
0
 11
1.65
 21
-0.525
 12
1.65
 22
0.525
 13
1.65
 23
0.525
  0
ENDBLK
  8
0
  0
BLOCK
  8
0
  2
LCA3R
 70
0
 10
0
 20
0
  0
SOLID
  8
1
 62
7 
 10
0
 20
0
 11
2.15
 21
-1.15
 12
2.15
 22
1.15
 13
2.15
 23
1.15
  0
ENDBLK
  8
0
  0
BLOCK
  8
0
  2
B15259_00991459
 70
0
 10
0
 20
0
  0
TEXT
  8
1
 40
2.475
 41
0.75
  1
3
  7
STANDARD
 73
2
 10
9.5870148340861
 20
-4.81388370196025
 11
9.5870148340861
 21
-4.81388370196025
  0
TEXT
  8
1
 40
2.475
 41
0.75
  1
1
  7
STANDARD
 72
2
 73
2
 10
-10.0477641423543
 20
-4.81388370196025
 11
-10.0477641423543
 21
-4.81388370196025
  0
TEXT
  8
1
 40
2.475
 41
0.75
  1
2
  7
STANDARD
 72
2
 73
2
 10
-1.04776414235433
 20
6.18611629803975
 11
-1.04776414235433
 21
6.18611629803975
  0
LINE
  8
1
 10
-9.04776414235433
 20
-0.813883701960246
 11
-13.0477641423543
 21
-0.813883701960246
  0
LINE
  8
1
 10
12.9522358576457
 20
-0.813883701960246
 11
8.95223585764567
 21
-0.813883701960246
  0
LINE
  8
1
 10
-0.0477641423543294
 20
7.18611629803975
 11
-0.0477641423543294
 21
3.18611629803975
  0
POLYLINE
  8
1
 70
1
 66
1
 40
0.5
 41
0.5
  0
VERTEX
  8
1
 10
-0.297764142354329
 20
-0.813883701960246
 42
1
  0
VERTEX
  8
1
 10
0.202235857645671
 20
-0.813883701960246
 42
1
  0
SEQEND
  8
1
  0
LINE
  8
1
 10
-0.0477641423543294
 20
-0.813883701960246
 11
-0.0477641423543294
 21
3.18611629803975
  0
POLYLINE
  8
1
  6
DOT
 66
1
  0
VERTEX
  8
1
 10
-0.0477641423543294
 20
3.18611629803975
  0
VERTEX
  8
1
 10
3.95223585764567
 20
7.18611629803975
  0
VERTEX
  8
1
 10
12.9522358576457
 20
7.18611629803975
  0
VERTEX
  8
1
 10
12.9522358576457
 20
2.18611629803975
  0
VERTEX
  8
1
 10
8.95223585764567
 20
2.18611629803975
  0
SEQEND
  8
1
  0
LINE
  8
1
 10
-0.0477641423543294
 20
-0.813883701960246
 11
-4.51443080902099
 21
-0.813883701960246
  0
LINE
  8
1
 10
-7.014430809021
 20
-0.813883701960246
 11
-9.03109747568766
 21
-0.813883701960246
  0
POLYLINE
  8
1
 66
1
  0
VERTEX
  8
1
 10
-5.04776414235433
 20
1.18611629803975
  0
VERTEX
  8
1
 10
-7.04776414235433
 20
-0.813883701960245
  0
VERTEX
  8
1
 10
-5.04776414235433
 20
-2.81388370196025
  0
SEQEND
  8
1
  0
CIRCLE
  8
1
 10
-5.514430809021
 20
-0.813883701960246
 40
1
  0
POLYLINE
  8
1
 66
1
  0
VERTEX
  8
1
 10
-9.04776414235433
 20
3.18611629803975
  0
VERTEX
  8
1
 10
8.95223585764567
 20
3.18611629803975
  0
VERTEX
  8
1
 10
8.95223585764567
 20
-4.81388370196025
  0
VERTEX
  8
1
 10
-9.04776414235433
 20
-4.81388370196025
  0
VERTEX
  8
1
 10
-9.04776414235433
 20
3.18611629803975
  0
SEQEND
  8
1
  0
LINE
  8
1
 10
-0.0477641423543294
 20
-0.813883701960246
 11
8.95223585764567
 21
-0.813883701960246
  0
POLYLINE
  8
1
 66
1
  0
VERTEX
  8
1
 10
4.95223585764567
 20
-2.81388370196025
  0
VERTEX
  8
1
 10
6.95223585764567
 20
-0.813883701960245
  0
VERTEX
  8
1
 10
4.95223585764567
 20
1.18611629803975
  0
SEQEND
  8
1
  0
CIRCLE
  8
CONNECTIONS
 10
-13.0477641423543
 20
-0.813883701960246
 40
0
  0
CIRCLE
  8
CONNECTIONS
 10
-0.0477641423543294
 20
7.18611629803975
 40
0
  0
CIRCLE
  8
CONNECTIONS
 10
12.9522358576457
 20
-0.813883701960246
 40
0
  0
ENDBLK
  8
0
  0
ENDSEC
  0
SECTION
  2
ENTITIES
  0
INSERT
  8
1
  2
B15259_00991459
 10
13.0477641423543
 20
7.18611637751261
  0
ENDSEC
  0
EOF
