  0
SECTION
  2
HEADER
  9
$LIMMIN
 10
0
 20
0
  9
$LIMMAX
 10
52.5
 20
74.25
  9
$EXTMIN
 10
0
 20
60.006044976274
  9
$EXTMAX
 10
0
 20
16
  0
ENDSEC
  0
SECTION
  2
TABLES
  0
TABLE
  2
LTYPE
 70
9
  0
LTYPE
  2
CONTINUOUS
 70
64
  3
Solid line
 72
65
 73
0
 40
0
  0
LTYPE
  2
DASHED
 70
64
  3
__ __ __ __ __ __ __ __ __
 72
65
 73
2
 40
0.75
 49
0.5
 49
-0.25
  0
LTYPE
  2
DOT
 70
64
  3
...........................
 72
65
 73
2
 40
0.25
 49
0
 49
-0.25
  0
LTYPE
  2
DASHDOT
 70
64
  3
__ . __ . __ . __ . __ . __ . 
 72
65
 73
4
 40
1
 49
0.5
 49
-0.25
 49
0
 49
-0.25
  0
ENDTAB
  0
TABLE
  2
LAYER
 70
10
  0
LAYER
  2
1
 70
0
 62
7
  6
CONTINUOUS
  0
LAYER
  2
CONNECTIONS
 70
0
 62
-7
  6
CONTINUOUS
  0
ENDTAB
  0
ENDSEC
  0
SECTION
  2
BLOCKS
  0
BLOCK
  8
0
  2
TRICON
 70
0
 10
0
 20
0
  0
POLYLINE
  8
1
 70
1
 66
1
 40
0.5
 41
0.5
  0
VERTEX
  8
1
 10
-0.25
 20
0
 42
1
  0
VERTEX
  8
1
 10
0.25
 20
0
 42
1
  0
SEQEND
  8
1
  0
ENDBLK
  8
0
  0
BLOCK
  8
0
  2
TRICONSMALL
 70
0
 10
0
 20
0
  0
POLYLINE
  8
1
 70
1
 66
1
 40
0.25
 41
0.25
  0
VERTEX
  8
1
 10
-0.125
 20
0
 42
1
  0
VERTEX
  8
1
 10
0.125
 20
0
 42
1
  0
SEQEND
  8
1
  0
ENDBLK
  8
0
  0
BLOCK
  8
0
  2
TRICONCIRCLE
 70
0
 10
0
 20
0
  0
CIRCLE
  8
1
 10
0
 20
0
 40
0.5
  0
ENDBLK
  8
0
  0
BLOCK
  8
0
  2
LCBP0
 70
0
 10
0
 20
0
  0
LINE
  8
1
 10
0
 20
-0.46875
 11
0
 21
0.46875
  0
ENDBLK
  8
0
  0
BLOCK
  8
0
  2
LCBP1
 70
0
 10
0
 20
0
  0
LINE
  8
1
 10
0
 20
-0.625
 11
0
 21
0.625
  0
ENDBLK
  8
0
  0
BLOCK
  8
0
  2
LCBP2
 70
0
 10
0
 20
0
  0
LINE
  8
1
 10
0
 20
-0.9375
 11
0
 21
0.9375
  0
ENDBLK
  8
0
  0
BLOCK
  8
0
  2
LCA1
 70
0
 10
0
 20
0
  0
SOLID
  8
1
 62
7 
 10
0
 20
0
 11
-1.4
 21
-0.275
 12
-1.4
 22
0.275
 13
-1.4
 23
0.275
  0
ENDBLK
  8
0
  0
BLOCK
  8
0
  2
LCA2
 70
0
 10
0
 20
0
  0
SOLID
  8
1
 62
7 
 10
0
 20
0
 11
-1.65
 21
-0.525
 12
-1.65
 22
0.525
 13
-1.65
 23
0.525
  0
ENDBLK
  8
0
  0
BLOCK
  8
0
  2
LCA3
 70
0
 10
0
 20
0
  0
SOLID
  8
1
 62
7 
 10
0
 20
0
 11
-2.15
 21
-1.15
 12
-2.15
 22
1.15
 13
-2.15
 23
1.15
  0
ENDBLK
  8
0
  0
BLOCK
  8
0
  2
LCA1R
 70
0
 10
0
 20
0
  0
SOLID
  8
1
 62
7 
 10
0
 20
0
 11
1.4
 21
-0.275
 12
1.4
 22
0.275
 13
1.4
 23
0.275
  0
ENDBLK
  8
0
  0
BLOCK
  8
0
  2
LCA2R
 70
0
 10
0
 20
0
  0
SOLID
  8
1
 62
7 
 10
0
 20
0
 11
1.65
 21
-0.525
 12
1.65
 22
0.525
 13
1.65
 23
0.525
  0
ENDBLK
  8
0
  0
BLOCK
  8
0
  2
LCA3R
 70
0
 10
0
 20
0
  0
SOLID
  8
1
 62
7 
 10
0
 20
0
 11
2.15
 21
-1.15
 12
2.15
 22
1.15
 13
2.15
 23
1.15
  0
ENDBLK
  8
0
  0
BLOCK
  8
0
  2
B199551_00991156
 70
0
 10
0
 20
0
  0
TEXT
  8
1
 40
2.4
 41
0.75
  1
12
  7
STANDARD
 73
3
 10
23.5807783653663
 20
3.43228803716608
 11
23.5807783653663
 21
3.43228803716608
  0
TEXT
  8
1
 40
2.4
 41
0.75
  1
14
  7
STANDARD
 72
2
 73
3
 10
-23.6706793230572
 20
3.46457607433217
 11
-23.6706793230572
 21
3.46457607433217
  0
TEXT
  8
1
 40
2.4
 41
0.75
  1
1
  7
STANDARD
 72
2
 10
0.579588023642785
 20
-8.08686821700944
 11
0.579588023642785
 21
-8.08686821700944
  0
TEXT
  8
1
 40
2.4
 41
0.75
  1
3
  7
STANDARD
 10
4.596977511863
 20
-8.1
  0
TEXT
  8
1
 40
2.4
 41
0.75
  1
5
  7
STANDARD
 72
2
 10
-4.23780146457742
 20
-8
 11
-4.23780146457742
 21
-8
  0
TEXT
  8
1
 40
2.4
 41
0.75
  1
2
  7
STANDARD
 72
2
 10
3.86219917120546
 20
5.2
 11
3.86219917120546
 21
5.2
  0
TEXT
  8
1
 40
2.4
 41
0.75
  1
4
  7
STANDARD
 72
2
 10
-4.33780082879454
 20
5.2
 11
-4.33780082879454
 21
5.2
  0
LINE
  8
1
 10
-4.00302248813699
 20
-4
 11
-4.00302248813699
 21
-8
  0
LINE
  8
1
 10
-0.00302248813699417
 20
-4
 11
-0.00302248813699417
 21
-8
  0
LINE
  8
1
 10
-4.00302248813699
 20
8
 11
-4.00302248813699
 21
4
  0
LINE
  8
1
 10
3.99697751186301
 20
8
 11
3.99697751186301
 21
4
  0
LINE
  8
1
 10
3.99697751186301
 20
-4
 11
3.99697751186301
 21
-8
  0
LINE
  8
1
 10
17.996977511863
 20
8
 11
17.996977511863
 21
4
  0
LINE
  8
1
 10
-18.003022488137
 20
8
 11
-18.003022488137
 21
4
  0
POLYLINE
  8
1
 66
1
  0
VERTEX
  8
1
 10
22.996977511863
 20
6
  0
VERTEX
  8
1
 10
22.5803108451962
 20
4
  0
VERTEX
  8
1
 10
21.746977511863
 20
8
  0
VERTEX
  8
1
 10
20.9136441785297
 20
4
  0
VERTEX
  8
1
 10
20.0803108451963
 20
8
  0
VERTEX
  8
1
 10
19.246977511863
 20
4
  0
VERTEX
  8
1
 10
18.4136441785297
 20
8
  0
VERTEX
  8
1
 10
17.996977511863
 20
6
  0
SEQEND
  8
1
  0
POLYLINE
  8
1
 66
1
  0
VERTEX
  8
1
 10
-23.003022488137
 20
6
  0
VERTEX
  8
1
 10
-22.5863558214703
 20
4
  0
VERTEX
  8
1
 10
-21.753022488137
 20
8
  0
VERTEX
  8
1
 10
-20.9196891548037
 20
4
  0
VERTEX
  8
1
 10
-20.0863558214703
 20
8
  0
VERTEX
  8
1
 10
-19.253022488137
 20
4
  0
VERTEX
  8
1
 10
-18.4196891548037
 20
8
  0
VERTEX
  8
1
 10
-18.003022488137
 20
6
  0
SEQEND
  8
1
  0
LINE
  8
1
 10
30.003022488137
 20
-3.55044662983594
 11
30.003022488137
 21
-0.550446629835938
  0
LINE
  8
1
 10
24.003022488137
 20
-3.05044662983594
 11
30.003022488137
 21
-3.05044662983594
  0
LINE
  8
1
 10
30.003022488137
 20
-1.05044662983594
 11
24.003022488137
 21
-1.05044662983594
  0
LINE
  8
1
 10
-30.003022488137
 20
-3.5
 11
-30.003022488137
 21
-0.5
  0
LINE
  8
1
 10
-24.003022488137
 20
-3
 11
-30.003022488137
 21
-3
  0
LINE
  8
1
 10
-30.003022488137
 20
-1
 11
-24.003022488137
 21
-1
  0
POLYLINE
  8
1
 66
1
  0
VERTEX
  8
1
 10
23.9696714000588
 20
-0.00090221536162538
  0
VERTEX
  8
1
 10
17.9696714000588
 20
-0.00090221536162538
  0
VERTEX
  8
1
 10
17.9696714000588
 20
-4.00090221536162
  0
VERTEX
  8
1
 10
23.9696714000588
 20
-4.00090221536162
  0
VERTEX
  8
1
 10
23.9696714000588
 20
-0.00090221536162538
  0
SEQEND
  8
1
  0
LINE
  8
1
 10
23.9696714000588
 20
-0.000902215361624788
 11
20.505569784921
 21
-2.00090221536162
  0
LINE
  8
1
 10
23.9696714000588
 20
-4.00090221536162
 11
20.505569784921
 21
-2.00090221536162
  0
POLYLINE
  8
1
 66
1
  0
VERTEX
  8
1
 10
-24.003022488137
 20
0
  0
VERTEX
  8
1
 10
-18.003022488137
 20
0
  0
VERTEX
  8
1
 10
-18.003022488137
 20
-4
  0
VERTEX
  8
1
 10
-24.003022488137
 20
-4
  0
VERTEX
  8
1
 10
-24.003022488137
 20
0
  0
SEQEND
  8
1
  0
LINE
  8
1
 10
-24.003022488137
 20
0
 11
-20.5389208729992
 21
-2
  0
LINE
  8
1
 10
-24.003022488137
 20
-4
 11
-20.5389208729992
 21
-2
  0
LINE
  8
1
 10
-4.00302248813699
 20
4
 11
-4.00302248813699
 21
2
  0
INSERT
  8
1
  2
LCBP1
 10
-4.00302248813699
 20
2
 50
-90
  0
LINE
  8
1
 10
3.99697751186301
 20
4
 11
3.99697751186301
 21
2
  0
INSERT
  8
1
  2
LCBP1
 10
3.99697751186301
 20
2
 50
-90
  0
LINE
  8
1
 10
3.99697751186301
 20
-4
 11
3.99697751186301
 21
-2
  0
INSERT
  8
1
  2
LCBP1
 10
3.99697751186301
 20
-2
 50
90
  0
LINE
  8
1
 10
-0.00302248813699417
 20
-4
 11
-0.00302248813699417
 21
-2
  0
INSERT
  8
1
  2
LCBP1
 10
-0.00302248813699417
 20
-2
 50
90
  0
LINE
  8
1
 10
-4.00302248813699
 20
-4
 11
-4.00302248813699
 21
-2
  0
INSERT
  8
1
  2
LCBP1
 10
-4.00302248813699
 20
-2
 50
90
  0
POLYLINE
  8
1
 66
1
  0
VERTEX
  8
1
 10
-6.00302248813699
 20
4
  0
VERTEX
  8
1
 10
5.99697751186301
 20
4
  0
VERTEX
  8
1
 10
5.99697751186301
 20
-4
  0
VERTEX
  8
1
 10
-6.00302248813699
 20
-4
  0
VERTEX
  8
1
 10
-6.00302248813699
 20
4
  0
SEQEND
  8
1
  0
LINE
  8
1
 10
-16.003022488137
 20
-4
 11
-16.003022488137
 21
-2
  0
INSERT
  8
1
  2
LCBP1
 10
-16.003022488137
 20
-2
 50
90
  0
POLYLINE
  8
1
 66
1
  0
VERTEX
  8
1
 10
-18.003022488137
 20
4
  0
VERTEX
  8
1
 10
-6.00302248813699
 20
4
  0
VERTEX
  8
1
 10
-6.00302248813699
 20
-4
  0
VERTEX
  8
1
 10
-18.003022488137
 20
-4
  0
VERTEX
  8
1
 10
-18.003022488137
 20
4
  0
SEQEND
  8
1
  0
LINE
  8
1
 10
-8.00302248813699
 20
4
 11
-8.00302248813699
 21
-4
  0
INSERT
  8
1
  2
LCA1
 10
-8.00302248813699
 20
-4
 50
-90
  0
LINE
  8
1
 10
-12.003022488137
 20
-4
 11
-16.003022488137
 21
4
  0
INSERT
  8
1
  2
LCA1
 10
-16.003022488137
 20
4
 50
116.565051177078
  0
LINE
  8
1
 10
15.996977511863
 20
-4
 11
15.996977511863
 21
-2
  0
INSERT
  8
1
  2
LCBP0
 10
15.996977511863
 20
-2
 50
90
  0
POLYLINE
  8
1
 66
1
  0
VERTEX
  8
1
 10
5.99697751186301
 20
4
  0
VERTEX
  8
1
 10
17.996977511863
 20
4
  0
VERTEX
  8
1
 10
17.996977511863
 20
-4
  0
VERTEX
  8
1
 10
5.99697751186301
 20
-4
  0
VERTEX
  8
1
 10
5.99697751186301
 20
4
  0
SEQEND
  8
1
  0
LINE
  8
1
 10
7.99697751186301
 20
4
 11
7.99697751186301
 21
-4
  0
INSERT
  8
1
  2
LCA1
 10
7.99697751186301
 20
-4
 50
-90
  0
LINE
  8
1
 10
11.996977511863
 20
-4
 11
15.996977511863
 21
4
  0
INSERT
  8
1
  2
LCA1
 10
15.996977511863
 20
4
 50
63.434948822922
  0
CIRCLE
  8
CONNECTIONS
 10
3.99697751186301
 20
8
 40
0
  0
CIRCLE
  8
CONNECTIONS
 10
-4.00302248813699
 20
8
 40
0
  0
CIRCLE
  8
CONNECTIONS
 10
-0.00302248813699417
 20
-8
 40
0
  0
CIRCLE
  8
CONNECTIONS
 10
-4.00302248813699
 20
-8
 40
0
  0
CIRCLE
  8
CONNECTIONS
 10
3.99697751186301
 20
-8
 40
0
  0
ENDBLK
  8
0
  0
ENDSEC
  0
SECTION
  2
ENTITIES
  0
INSERT
  8
1
  2
B199551_00991156
 10
30.003022488137
 20
8
  0
ENDSEC
  0
EOF
