  0
SECTION
  2
HEADER
  9
$LIMMIN
 10
0
 20
0
  9
$LIMMAX
 10
52.5
 20
74.25
  9
$EXTMIN
 10
0
 20
32.3714552243551
  9
$EXTMAX
 10
0
 20
12.0999913613001
  0
ENDSEC
  0
SECTION
  2
TABLES
  0
TABLE
  2
LTYPE
 70
9
  0
LTYPE
  2
CONTINUOUS
 70
64
  3
Solid line
 72
65
 73
0
 40
0
  0
LTYPE
  2
DASHED
 70
64
  3
__ __ __ __ __ __ __ __ __
 72
65
 73
2
 40
0.75
 49
0.5
 49
-0.25
  0
LTYPE
  2
DOT
 70
64
  3
...........................
 72
65
 73
2
 40
0.25
 49
0
 49
-0.25
  0
LTYPE
  2
DASHDOT
 70
64
  3
__ . __ . __ . __ . __ . __ . 
 72
65
 73
4
 40
1
 49
0.5
 49
-0.25
 49
0
 49
-0.25
  0
ENDTAB
  0
TABLE
  2
LAYER
 70
10
  0
LAYER
  2
1
 70
0
 62
7
  6
CONTINUOUS
  0
LAYER
  2
CONNECTIONS
 70
0
 62
-7
  6
CONTINUOUS
  0
ENDTAB
  0
ENDSEC
  0
SECTION
  2
BLOCKS
  0
BLOCK
  8
0
  2
TRICON
 70
0
 10
0
 20
0
  0
POLYLINE
  8
1
 70
1
 66
1
 40
0.5
 41
0.5
  0
VERTEX
  8
1
 10
-0.25
 20
0
 42
1
  0
VERTEX
  8
1
 10
0.25
 20
0
 42
1
  0
SEQEND
  8
1
  0
ENDBLK
  8
0
  0
BLOCK
  8
0
  2
TRICONSMALL
 70
0
 10
0
 20
0
  0
POLYLINE
  8
1
 70
1
 66
1
 40
0.25
 41
0.25
  0
VERTEX
  8
1
 10
-0.125
 20
0
 42
1
  0
VERTEX
  8
1
 10
0.125
 20
0
 42
1
  0
SEQEND
  8
1
  0
ENDBLK
  8
0
  0
BLOCK
  8
0
  2
TRICONCIRCLE
 70
0
 10
0
 20
0
  0
CIRCLE
  8
1
 10
0
 20
0
 40
0.5
  0
ENDBLK
  8
0
  0
BLOCK
  8
0
  2
LCBP0
 70
0
 10
0
 20
0
  0
LINE
  8
1
 10
0
 20
-0.46875
 11
0
 21
0.46875
  0
ENDBLK
  8
0
  0
BLOCK
  8
0
  2
LCBP1
 70
0
 10
0
 20
0
  0
LINE
  8
1
 10
0
 20
-0.625
 11
0
 21
0.625
  0
ENDBLK
  8
0
  0
BLOCK
  8
0
  2
LCBP2
 70
0
 10
0
 20
0
  0
LINE
  8
1
 10
0
 20
-0.9375
 11
0
 21
0.9375
  0
ENDBLK
  8
0
  0
BLOCK
  8
0
  2
LCA1
 70
0
 10
0
 20
0
  0
SOLID
  8
1
 62
7 
 10
0
 20
0
 11
-1.4
 21
-0.275
 12
-1.4
 22
0.275
 13
-1.4
 23
0.275
  0
ENDBLK
  8
0
  0
BLOCK
  8
0
  2
LCA2
 70
0
 10
0
 20
0
  0
SOLID
  8
1
 62
7 
 10
0
 20
0
 11
-1.65
 21
-0.525
 12
-1.65
 22
0.525
 13
-1.65
 23
0.525
  0
ENDBLK
  8
0
  0
BLOCK
  8
0
  2
LCA3
 70
0
 10
0
 20
0
  0
SOLID
  8
1
 62
7 
 10
0
 20
0
 11
-2.15
 21
-1.15
 12
-2.15
 22
1.15
 13
-2.15
 23
1.15
  0
ENDBLK
  8
0
  0
BLOCK
  8
0
  2
LCA1R
 70
0
 10
0
 20
0
  0
SOLID
  8
1
 62
7 
 10
0
 20
0
 11
1.4
 21
-0.275
 12
1.4
 22
0.275
 13
1.4
 23
0.275
  0
ENDBLK
  8
0
  0
BLOCK
  8
0
  2
LCA2R
 70
0
 10
0
 20
0
  0
SOLID
  8
1
 62
7 
 10
0
 20
0
 11
1.65
 21
-0.525
 12
1.65
 22
0.525
 13
1.65
 23
0.525
  0
ENDBLK
  8
0
  0
BLOCK
  8
0
  2
LCA3R
 70
0
 10
0
 20
0
  0
SOLID
  8
1
 62
7 
 10
0
 20
0
 11
2.15
 21
-1.15
 12
2.15
 22
1.15
 13
2.15
 23
1.15
  0
ENDBLK
  8
0
  0
BLOCK
  8
0
  2
B3750_00991152
 70
0
 10
0
 20
0
  0
POLYLINE
  8
1
 66
1
  0
VERTEX
  8
1
 10
-16.1857277552287
 20
3.95000432332357
  0
VERTEX
  8
1
 10
-6.18572775522868
 20
3.95000432332357
  0
VERTEX
  8
1
 10
-6.18572775522868
 20
-6.04999567667643
  0
VERTEX
  8
1
 10
-16.1857277552287
 20
-6.04999567667643
  0
VERTEX
  8
1
 10
-16.1857277552287
 20
3.95000432332357
  0
SEQEND
  8
1
  0
TEXT
  8
1
 40
1.08
 41
0.75
  1
RL
  7
STANDARD
 72
1
 73
2
 10
7.79456213315328
 20
0.750004323323569
 11
7.79456213315328
 21
0.750004323323569
  0
TEXT
  8
1
 40
1.44
 41
0.75
  1
-
  7
STANDARD
 73
2
 10
14.1881818262736
 20
-4.54778175354004
 11
14.1881818262736
 21
-4.54778175354004
  0
TEXT
  8
1
 40
1.44
 41
0.75
  1
+
  7
STANDARD
 73
2
 10
14.1081818262736
 20
3.43000432332357
 11
14.1081818262736
 21
3.43000432332357
  0
TEXT
  8
1
 40
1.44
 41
0.75
  1
BK
  7
STANDARD
 73
2
 10
-6.01181817372639
 20
0.65221824645996
 11
-6.01181817372639
 21
0.65221824645996
  0
TEXT
  8
1
 40
1.43999977111816
 41
0.75
  1
BN
  7
STANDARD
 73
2
 10
-6.0118181737264
 20
4.65221824645996
 11
-6.0118181737264
 21
4.65221824645996
  0
LINE
  8
1
 10
5.81427224477132
 20
-1.04999567667643
 11
0.314272244771322
 21
-1.04999567667643
  0
LINE
  8
1
 10
0.314272244771322
 20
-5.04999567667643
 11
10.6642722447713
 21
-5.04999567667643
  0
LINE
  8
1
 10
11.1642722447713
 20
-5.04999567667643
 11
13.3142722447713
 21
-5.04999567667643
  0
CIRCLE
  8
1
 10
10.9142722447713
 20
-5.04999567667643
 40
0.25
  0
LINE
  8
1
 10
10.9142722447713
 20
-1.04999567667643
 11
10.9142722447713
 21
-4.79999567667643
  0
LINE
  8
1
 10
9.91427224477133
 20
-1.04999567667643
 11
10.9142722447713
 21
-1.04999567667643
  0
LINE
  8
1
 10
0.314272244771322
 20
2.95000432332357
 11
13.3142722447713
 21
2.95000432332357
  0
LINE
  8
1
 10
-13.1857277552287
 20
-1.54999567667643
 11
-13.1857277552287
 21
-0.549995676676431
  0
SOLID
  8
1
 10
-13.1857277552287
 20
-0.549995676676431
 11
-13.1857277552287
 21
-1.54999567667643
 12
-15.1857277552287
 22
-1.54999567667643
 13
-15.1857277552287
 23
-1.54999567667643
  0
SOLID
  8
1
 10
-15.1857277552287
 20
3.45000432332357
 11
-13.1857277552287
 21
3.45000432332357
 12
-13.1857277552287
 22
2.45000432332357
 13
-13.1857277552287
 23
2.45000432332357
  0
SOLID
  8
1
 10
-14.1857277552287
 20
-0.549995676676431
 11
-13.1857277552287
 21
-0.549995676676431
 12
-15.1857277552287
 22
-1.54999567667643
 13
-15.1857277552287
 23
-1.54999567667643
  0
SOLID
  8
1
 10
-15.1857277552287
 20
3.45000432332357
 11
-13.1857277552287
 21
2.45000432332357
 12
-14.1857277552287
 22
2.45000432332357
 13
-14.1857277552287
 23
2.45000432332357
  0
SOLID
  8
1
 10
-14.1857277552287
 20
2.45000432332357
 11
-14.1857277552287
 21
-0.549995676676431
 12
-15.1857277552287
 22
-1.54999567667643
 13
-15.1857277552287
 23
-1.54999567667643
  0
SOLID
  8
1
 10
-15.1857277552287
 20
-1.54999567667643
 11
-15.1857277552287
 21
3.45000432332357
 12
-14.1857277552287
 22
2.45000432332357
 13
-14.1857277552287
 23
2.45000432332357
  0
TEXT
  8
1
 40
1.26
 41
0.75
  1
PNP
  7
STANDARD
 72
1
 73
3
 10
-11.1857277552287
 20
-2.55731371879578
 11
-11.1857277552287
 21
-2.55731371879578
  0
LINE
  8
1
 10
-6.18572775522868
 20
-5.04999567667643
 11
-0.585727755228679
 21
-5.04999567667643
  0
LINE
  8
1
 10
-6.18572775522868
 20
-1.04999567667643
 11
-0.585727755228679
 21
-1.04999567667643
  0
LINE
  8
1
 10
-6.18572775522868
 20
2.95000432332357
 11
-0.585727755228679
 21
2.95000432332357
  0
LINE
  8
1
 10
-0.685727755228678
 20
-5.04999567667643
 11
-0.585727755228675
 21
-5.04999567667643
  0
CIRCLE
  8
1
 10
-0.185727755228678
 20
-5.04999567667643
 40
0.4
  0
CIRCLE
  8
1
 10
-0.185727755228678
 20
-1.04999567667643
 40
0.4
  0
CIRCLE
  8
1
 10
-0.185727755228678
 20
2.95000432332357
 40
0.4
  0
LINE
  8
1
 10
-8.18572775522868
 20
-1.04999567667643
 11
-6.18572775522868
 21
-1.04999567667643
  0
LINE
  8
1
 10
-8.18572775522868
 20
2.95000432332357
 11
-6.18572775522868
 21
2.95000432332357
  0
LINE
  8
1
 10
-9.18572775522868
 20
2.45000432332357
 11
-8.18572775522868
 21
-0.0499956766764313
  0
LINE
  8
1
 10
-8.18572775522868
 20
1.95000432332357
 11
-8.18572775522868
 21
2.95000432332357
  0
LINE
  8
1
 10
-8.18572775522868
 20
-0.0499956766764313
 11
-8.18572775522868
 21
-1.04999567667643
  0
POLYLINE
  8
1
 66
1
  0
VERTEX
  8
1
 10
5.81427224477132
 20
-0.549995676676431
  0
VERTEX
  8
1
 10
9.81427224477132
 20
-0.549995676676431
  0
VERTEX
  8
1
 10
9.81427224477132
 20
-1.54999567667643
  0
VERTEX
  8
1
 10
5.81427224477132
 20
-1.54999567667643
  0
VERTEX
  8
1
 10
5.81427224477132
 20
-0.549995676676431
  0
SEQEND
  8
1
  0
LINE
  8
1
  6
DOT
 10
-10.1857277552287
 20
0.950004323323569
 11
-8.68572775522868
 21
0.950004323323569
  0
LINE
  8
1
 10
-12.3857277552287
 20
1.75000432332357
 11
-12.3857277552287
 21
0.150004323323567
  0
LINE
  8
1
 10
-10.9857277552287
 20
1.75000432332357
 11
-10.9857277552287
 21
0.150004323323567
  0
POLYLINE
  8
1
 66
1
  0
VERTEX
  8
1
 10
-11.6857277552287
 20
2.45000432332357
  0
VERTEX
  8
1
 10
-13.1857277552287
 20
0.950004323323569
  0
VERTEX
  8
1
 10
-11.6857277552287
 20
-0.549995676676431
  0
VERTEX
  8
1
 10
-10.1857277552287
 20
0.950004323323569
  0
VERTEX
  8
1
 10
-11.6857277552287
 20
2.45000432332357
  0
SEQEND
  8
1
  0
ENDBLK
  8
0
  0
ENDSEC
  0
SECTION
  2
ENTITIES
  0
INSERT
  8
1
  2
B3750_00991152
 10
16.1857277552287
 20
6.04999567667643
  0
ENDSEC
  0
EOF
