  0
SECTION
  2
HEADER
  9
$LIMMIN
 10
0
 20
0
  9
$LIMMAX
 10
52.5
 20
74.25
  9
$EXTMIN
 10
0
 20
33.6
  9
$EXTMAX
 10
0
 20
16.9999995231628
  0
ENDSEC
  0
SECTION
  2
TABLES
  0
TABLE
  2
LTYPE
 70
9
  0
LTYPE
  2
CONTINUOUS
 70
64
  3
Solid line
 72
65
 73
0
 40
0
  0
LTYPE
  2
DASHED
 70
64
  3
__ __ __ __ __ __ __ __ __
 72
65
 73
2
 40
0.75
 49
0.5
 49
-0.25
  0
LTYPE
  2
DOT
 70
64
  3
...........................
 72
65
 73
2
 40
0.25
 49
0
 49
-0.25
  0
LTYPE
  2
DASHDOT
 70
64
  3
__ . __ . __ . __ . __ . __ . 
 72
65
 73
4
 40
1
 49
0.5
 49
-0.25
 49
0
 49
-0.25
  0
ENDTAB
  0
TABLE
  2
LAYER
 70
10
  0
LAYER
  2
1
 70
0
 62
7
  6
CONTINUOUS
  0
LAYER
  2
CONNECTIONS
 70
0
 62
-7
  6
CONTINUOUS
  0
ENDTAB
  0
ENDSEC
  0
SECTION
  2
BLOCKS
  0
BLOCK
  8
0
  2
TRICON
 70
0
 10
0
 20
0
  0
POLYLINE
  8
1
 70
1
 66
1
 40
0.5
 41
0.5
  0
VERTEX
  8
1
 10
-0.25
 20
0
 42
1
  0
VERTEX
  8
1
 10
0.25
 20
0
 42
1
  0
SEQEND
  8
1
  0
ENDBLK
  8
0
  0
BLOCK
  8
0
  2
TRICONSMALL
 70
0
 10
0
 20
0
  0
POLYLINE
  8
1
 70
1
 66
1
 40
0.25
 41
0.25
  0
VERTEX
  8
1
 10
-0.125
 20
0
 42
1
  0
VERTEX
  8
1
 10
0.125
 20
0
 42
1
  0
SEQEND
  8
1
  0
ENDBLK
  8
0
  0
BLOCK
  8
0
  2
TRICONCIRCLE
 70
0
 10
0
 20
0
  0
CIRCLE
  8
1
 10
0
 20
0
 40
0.5
  0
ENDBLK
  8
0
  0
BLOCK
  8
0
  2
LCBP0
 70
0
 10
0
 20
0
  0
LINE
  8
1
 10
0
 20
-0.46875
 11
0
 21
0.46875
  0
ENDBLK
  8
0
  0
BLOCK
  8
0
  2
LCBP1
 70
0
 10
0
 20
0
  0
LINE
  8
1
 10
0
 20
-0.625
 11
0
 21
0.625
  0
ENDBLK
  8
0
  0
BLOCK
  8
0
  2
LCBP2
 70
0
 10
0
 20
0
  0
LINE
  8
1
 10
0
 20
-0.9375
 11
0
 21
0.9375
  0
ENDBLK
  8
0
  0
BLOCK
  8
0
  2
LCA1
 70
0
 10
0
 20
0
  0
SOLID
  8
1
 62
7 
 10
0
 20
0
 11
-1.4
 21
-0.275
 12
-1.4
 22
0.275
 13
-1.4
 23
0.275
  0
ENDBLK
  8
0
  0
BLOCK
  8
0
  2
LCA2
 70
0
 10
0
 20
0
  0
SOLID
  8
1
 62
7 
 10
0
 20
0
 11
-1.65
 21
-0.525
 12
-1.65
 22
0.525
 13
-1.65
 23
0.525
  0
ENDBLK
  8
0
  0
BLOCK
  8
0
  2
LCA3
 70
0
 10
0
 20
0
  0
SOLID
  8
1
 62
7 
 10
0
 20
0
 11
-2.15
 21
-1.15
 12
-2.15
 22
1.15
 13
-2.15
 23
1.15
  0
ENDBLK
  8
0
  0
BLOCK
  8
0
  2
LCA1R
 70
0
 10
0
 20
0
  0
SOLID
  8
1
 62
7 
 10
0
 20
0
 11
1.4
 21
-0.275
 12
1.4
 22
0.275
 13
1.4
 23
0.275
  0
ENDBLK
  8
0
  0
BLOCK
  8
0
  2
LCA2R
 70
0
 10
0
 20
0
  0
SOLID
  8
1
 62
7 
 10
0
 20
0
 11
1.65
 21
-0.525
 12
1.65
 22
0.525
 13
1.65
 23
0.525
  0
ENDBLK
  8
0
  0
BLOCK
  8
0
  2
LCA3R
 70
0
 10
0
 20
0
  0
SOLID
  8
1
 62
7 
 10
0
 20
0
 11
2.15
 21
-1.15
 12
2.15
 22
1.15
 13
2.15
 23
1.15
  0
ENDBLK
  8
0
  0
BLOCK
  8
0
  2
B126288_00991136
 70
0
 10
0
 20
0
  0
TEXT
  8
1
 40
2.4
 41
0.75
  1
14
  7
STANDARD
 73
2
 10
-16.8
 20
2.59999968210856
 11
-16.8
 21
2.59999968210856
  0
TEXT
  8
1
 40
2.475
 41
0.75
  1
1
  7
STANDARD
 72
2
 73
3
 10
5.66522165934245
 20
-4.37428448994954
 11
5.66522165934245
 21
-4.37428448994954
  0
TEXT
  8
1
 40
2.475
 41
0.75
  1
2
  7
STANDARD
 10
9.93477834065755
 20
5.73750031789144
  0
TEXT
  8
1
 40
2.475
 41
0.75
  1
3
  7
STANDARD
 73
3
 10
9.93477834065755
 20
-4.37428448994954
 11
9.93477834065755
 21
-4.37428448994954
  0
TEXT
  8
1
 40
2.475
 41
0.75
  1
4
  7
STANDARD
 72
2
 10
5.66522165934245
 20
5.73749968210856
 11
5.66522165934245
 21
5.73749968210856
  0
LINE
  8
1
 10
9.8
 20
8.49999968210856
 11
9.8
 21
4.49999968210856
  0
LINE
  8
1
 10
5.8
 20
-3.50000031789144
 11
5.8
 21
-7.50000031789144
  0
LINE
  8
1
 10
5.8
 20
8.49999968210856
 11
5.8
 21
4.49999968210856
  0
LINE
  8
1
 10
9.8
 20
-3.50000031789144
 11
9.8
 21
-7.50000031789144
  0
LINE
  8
1
 10
-14.2
 20
-3.50000031789144
 11
-12.2
 21
0.499999682108561
  0
POLYLINE
  8
1
 66
1
  0
VERTEX
  8
1
 10
-16.2
 20
0.499999682108562
  0
VERTEX
  8
1
 10
-10.2
 20
0.499999682108562
  0
VERTEX
  8
1
 10
-10.2
 20
-3.50000031789144
  0
VERTEX
  8
1
 10
-16.2
 20
-3.50000031789144
  0
VERTEX
  8
1
 10
-16.2
 20
0.499999682108562
  0
SEQEND
  8
1
  0
POLYLINE
  8
1
 66
1
  0
VERTEX
  8
1
 10
16.8
 20
-1.50000031789144
  0
VERTEX
  8
1
 10
16.3833333333333
 20
-3.50000031789144
  0
VERTEX
  8
1
 10
15.55
 20
0.499999682108562
  0
VERTEX
  8
1
 10
14.7166666666667
 20
-3.50000031789144
  0
VERTEX
  8
1
 10
13.8833333333333
 20
0.499999682108562
  0
VERTEX
  8
1
 10
13.05
 20
-3.50000031789144
  0
VERTEX
  8
1
 10
12.2166666666666
 20
0.499999682108562
  0
VERTEX
  8
1
 10
11.8
 20
-1.50000031789144
  0
SEQEND
  8
1
  0
POLYLINE
  8
1
 66
1
  0
VERTEX
  8
1
 10
-10.2
 20
0.499999682108562
  0
VERTEX
  8
1
 10
-4.2
 20
0.499999682108562
  0
VERTEX
  8
1
 10
-4.2
 20
-3.50000031789144
  0
VERTEX
  8
1
 10
-10.2
 20
-3.50000031789144
  0
VERTEX
  8
1
 10
-10.2
 20
0.499999682108562
  0
SEQEND
  8
1
  0
LINE
  8
1
 10
-10.2
 20
0.499999682108561
 11
-6.73589838486225
 21
-1.50000031789144
  0
LINE
  8
1
 10
-10.2
 20
-3.50000031789144
 11
-6.73589838486225
 21
-1.50000031789144
  0
LINE
  8
1
 10
-8.2
 20
3.99999968210856
 11
-4.2
 21
3.99999968210856
  0
LINE
  8
1
 10
-8.2
 20
4.49999968210856
 11
-8.2
 21
1.49999968210856
  0
LINE
  8
1
 10
-8.2
 20
1.99999968210856
 11
-4.2
 21
1.99999968210856
  0
LINE
  8
1
 10
-4.2
 20
0.499999682108561
 11
-4.2
 21
4.49999968210856
  0
POLYLINE
  8
1
 66
1
  0
VERTEX
  8
1
 10
3.8
 20
4.49999968210856
  0
VERTEX
  8
1
 10
11.8
 20
4.49999968210856
  0
VERTEX
  8
1
 10
11.8
 20
-3.50000031789144
  0
VERTEX
  8
1
 10
3.8
 20
-3.50000031789144
  0
VERTEX
  8
1
 10
3.8
 20
4.49999968210856
  0
SEQEND
  8
1
  0
LINE
  8
1
 10
5.8
 20
-3.50000031789144
 11
9.8
 21
4.49999968210856
  0
INSERT
  8
1
  2
LCA1
 10
9.8
 20
4.49999968210856
 50
63.434948822922
  0
LINE
  8
1
 10
5.8
 20
4.49999968210856
 11
9.8
 21
-3.50000031789144
  0
INSERT
  8
1
  2
LCA1
 10
9.8
 20
-3.50000031789144
 50
-63.434948822922
  0
POLYLINE
  8
1
 66
1
  0
VERTEX
  8
1
 10
-4.2
 20
4.49999968210856
  0
VERTEX
  8
1
 10
3.8
 20
4.49999968210856
  0
VERTEX
  8
1
 10
3.8
 20
-3.50000031789144
  0
VERTEX
  8
1
 10
-4.2
 20
-3.50000031789144
  0
VERTEX
  8
1
 10
-4.2
 20
4.49999968210856
  0
SEQEND
  8
1
  0
LINE
  8
1
 10
1.8
 20
4.49999968210856
 11
1.8
 21
-3.50000031789144
  0
INSERT
  8
1
  2
LCA1
 10
1.8
 20
-3.50000031789144
 50
-90
  0
LINE
  8
1
 10
-2.2
 20
-3.50000031789144
 11
-2.2
 21
4.49999968210856
  0
INSERT
  8
1
  2
LCA1
 10
-2.2
 20
4.49999968210856
 50
90
  0
CIRCLE
  8
CONNECTIONS
 10
5.8
 20
8.49999968210856
 40
0
  0
CIRCLE
  8
CONNECTIONS
 10
5.8
 20
-7.50000031789144
 40
0
  0
CIRCLE
  8
CONNECTIONS
 10
9.8
 20
-7.50000031789144
 40
0
  0
CIRCLE
  8
CONNECTIONS
 10
9.8
 20
8.49999968210856
 40
0
  0
CIRCLE
  8
CONNECTIONS
 10
-16.2
 20
-1.50000031789144
 40
0
  0
ENDBLK
  8
0
  0
ENDSEC
  0
SECTION
  2
ENTITIES
  0
INSERT
  8
1
  2
B126288_00991136
 10
16.8
 20
8.49999984105428
  0
ENDSEC
  0
EOF
