  0
SECTION
  2
HEADER
  9
$LIMMIN
 10
0
 20
0
  9
$LIMMAX
 10
52.5
 20
74.25
  9
$EXTMIN
 10
0
 20
48
  9
$EXTMAX
 10
0
 20
16.829628944397
  0
ENDSEC
  0
SECTION
  2
TABLES
  0
TABLE
  2
LTYPE
 70
9
  0
LTYPE
  2
CONTINUOUS
 70
64
  3
Solid line
 72
65
 73
0
 40
0
  0
LTYPE
  2
DASHED
 70
64
  3
__ __ __ __ __ __ __ __ __
 72
65
 73
2
 40
0.75
 49
0.5
 49
-0.25
  0
LTYPE
  2
DOT
 70
64
  3
...........................
 72
65
 73
2
 40
0.25
 49
0
 49
-0.25
  0
LTYPE
  2
DASHDOT
 70
64
  3
__ . __ . __ . __ . __ . __ . 
 72
65
 73
4
 40
1
 49
0.5
 49
-0.25
 49
0
 49
-0.25
  0
ENDTAB
  0
TABLE
  2
LAYER
 70
10
  0
LAYER
  2
1
 70
0
 62
7
  6
CONTINUOUS
  0
LAYER
  2
CONNECTIONS
 70
0
 62
-7
  6
CONTINUOUS
  0
ENDTAB
  0
ENDSEC
  0
SECTION
  2
BLOCKS
  0
BLOCK
  8
0
  2
TRICON
 70
0
 10
0
 20
0
  0
POLYLINE
  8
1
 70
1
 66
1
 40
0.5
 41
0.5
  0
VERTEX
  8
1
 10
-0.25
 20
0
 42
1
  0
VERTEX
  8
1
 10
0.25
 20
0
 42
1
  0
SEQEND
  8
1
  0
ENDBLK
  8
0
  0
BLOCK
  8
0
  2
TRICONSMALL
 70
0
 10
0
 20
0
  0
POLYLINE
  8
1
 70
1
 66
1
 40
0.25
 41
0.25
  0
VERTEX
  8
1
 10
-0.125
 20
0
 42
1
  0
VERTEX
  8
1
 10
0.125
 20
0
 42
1
  0
SEQEND
  8
1
  0
ENDBLK
  8
0
  0
BLOCK
  8
0
  2
TRICONCIRCLE
 70
0
 10
0
 20
0
  0
CIRCLE
  8
1
 10
0
 20
0
 40
0.5
  0
ENDBLK
  8
0
  0
BLOCK
  8
0
  2
LCBP0
 70
0
 10
0
 20
0
  0
LINE
  8
1
 10
0
 20
-0.46875
 11
0
 21
0.46875
  0
ENDBLK
  8
0
  0
BLOCK
  8
0
  2
LCBP1
 70
0
 10
0
 20
0
  0
LINE
  8
1
 10
0
 20
-0.625
 11
0
 21
0.625
  0
ENDBLK
  8
0
  0
BLOCK
  8
0
  2
LCBP2
 70
0
 10
0
 20
0
  0
LINE
  8
1
 10
0
 20
-0.9375
 11
0
 21
0.9375
  0
ENDBLK
  8
0
  0
BLOCK
  8
0
  2
LCA1
 70
0
 10
0
 20
0
  0
SOLID
  8
1
 62
7 
 10
0
 20
0
 11
-1.4
 21
-0.275
 12
-1.4
 22
0.275
 13
-1.4
 23
0.275
  0
ENDBLK
  8
0
  0
BLOCK
  8
0
  2
LCA2
 70
0
 10
0
 20
0
  0
SOLID
  8
1
 62
7 
 10
0
 20
0
 11
-1.65
 21
-0.525
 12
-1.65
 22
0.525
 13
-1.65
 23
0.525
  0
ENDBLK
  8
0
  0
BLOCK
  8
0
  2
LCA3
 70
0
 10
0
 20
0
  0
SOLID
  8
1
 62
7 
 10
0
 20
0
 11
-2.15
 21
-1.15
 12
-2.15
 22
1.15
 13
-2.15
 23
1.15
  0
ENDBLK
  8
0
  0
BLOCK
  8
0
  2
LCA1R
 70
0
 10
0
 20
0
  0
SOLID
  8
1
 62
7 
 10
0
 20
0
 11
1.4
 21
-0.275
 12
1.4
 22
0.275
 13
1.4
 23
0.275
  0
ENDBLK
  8
0
  0
BLOCK
  8
0
  2
LCA2R
 70
0
 10
0
 20
0
  0
SOLID
  8
1
 62
7 
 10
0
 20
0
 11
1.65
 21
-0.525
 12
1.65
 22
0.525
 13
1.65
 23
0.525
  0
ENDBLK
  8
0
  0
BLOCK
  8
0
  2
LCA3R
 70
0
 10
0
 20
0
  0
SOLID
  8
1
 62
7 
 10
0
 20
0
 11
2.15
 21
-1.15
 12
2.15
 22
1.15
 13
2.15
 23
1.15
  0
ENDBLK
  8
0
  0
BLOCK
  8
0
  2
B159479_00991125
 70
0
 10
0
 20
0
  0
TEXT
  8
1
 40
2.475
 41
0.75
  1
12
  7
STANDARD
 73
2
 10
17.4353136698405
 20
5.89075129826864
 11
17.4353136698405
 21
5.89075129826864
  0
TEXT
  8
1
 40
2.4
 41
0.75
  1
14
  7
STANDARD
 72
2
 73
2
 10
-16.8676568349202
 20
6.08518536885579
 11
-16.8676568349202
 21
6.08518536885579
  0
TEXT
  8
1
 40
2.4
 41
0.75
  1
84
  7
STANDARD
 10
-14.2028490066528
 20
-8.81481399536133
  0
LINE
  8
1
 10
-14
 20
-4.41481463114421
 11
-14
 21
-8.41481463114421
  0
TEXT
  8
1
 40
2.4
 41
0.75
  1
14
  7
STANDARD
 72
2
 10
-18.2107765197754
 20
-8.58704722722371
 11
-18.2107765197754
 21
-8.58704722722371
  0
LINE
  8
1
 10
-18
 20
-4.41481463114421
 11
-18
 21
-8.41481463114421
  0
TEXT
  8
1
 40
2.4
 41
0.75
  1
1
  7
STANDARD
 72
2
 10
6.56522102355956
 20
-8.18704722722372
 11
6.56522102355956
 21
-8.18704722722372
  0
TEXT
  8
1
 40
2.4
 41
0.75
  1
3
  7
STANDARD
 10
10.1
 20
-8.28704722722371
  0
TEXT
  8
1
 40
2.4
 41
0.75
  1
5
  7
STANDARD
 72
2
 10
2.26522102355957
 20
-8.18704722722371
 11
2.26522102355957
 21
-8.18704722722371
  0
TEXT
  8
1
 40
2.4
 41
0.75
  1
2
  7
STANDARD
 72
2
 10
10.2652210235596
 20
4.81295277277628
 11
10.2652210235596
 21
4.81295277277628
  0
TEXT
  8
1
 40
2.4
 41
0.75
  1
4
  7
STANDARD
 72
2
 10
1.94439822307959
 20
4.7851853688558
 11
1.94439822307959
 21
4.7851853688558
  0
LINE
  8
1
 10
10
 20
3.58518536885579
 11
10
 21
7.58518536885579
  0
LINE
  8
1
 10
2
 20
-4.41481463114421
 11
2
 21
-8.41481463114421
  0
LINE
  8
1
 10
2
 20
7.58518536885579
 11
2
 21
3.58518536885579
  0
LINE
  8
1
 10
6
 20
-4.41481463114421
 11
6
 21
-8.41481463114421
  0
LINE
  8
1
 10
10
 20
-4.41481463114421
 11
10
 21
-8.41481463114421
  0
LINE
  8
1
 10
22
 20
3.08518536885579
 11
18
 21
3.08518536885579
  0
LINE
  8
1
 10
22
 20
3.58518536885579
 11
22
 21
0.585185368855794
  0
LINE
  8
1
 10
22
 20
1.08518536885579
 11
18
 21
1.08518536885579
  0
LINE
  8
1
 10
18
 20
-0.414814631144206
 11
18
 21
3.58518536885579
  0
LINE
  8
1
 10
-22
 20
3.08518536885579
 11
-18
 21
3.08518536885579
  0
LINE
  8
1
 10
-22
 20
3.58518536885579
 11
-22
 21
0.585185368855794
  0
LINE
  8
1
 10
-22
 20
1.08518536885579
 11
-18
 21
1.08518536885579
  0
LINE
  8
1
 10
-18
 20
-0.414814631144206
 11
-18
 21
3.58518536885579
  0
LINE
  8
1
 10
22
 20
-4.41481463114421
 11
20
 21
-0.414814631144206
  0
POLYLINE
  8
1
 66
1
  0
VERTEX
  8
1
 10
24
 20
-0.414814631144207
  0
VERTEX
  8
1
 10
18
 20
-0.414814631144207
  0
VERTEX
  8
1
 10
18
 20
-4.41481463114421
  0
VERTEX
  8
1
 10
24
 20
-4.41481463114421
  0
VERTEX
  8
1
 10
24
 20
-0.414814631144207
  0
SEQEND
  8
1
  0
LINE
  8
1
 10
-22
 20
-4.41481463114421
 11
-20
 21
-0.414814631144206
  0
POLYLINE
  8
1
 66
1
  0
VERTEX
  8
1
 10
-24
 20
-0.414814631144207
  0
VERTEX
  8
1
 10
-18
 20
-0.414814631144207
  0
VERTEX
  8
1
 10
-18
 20
-4.41481463114421
  0
VERTEX
  8
1
 10
-24
 20
-4.41481463114421
  0
VERTEX
  8
1
 10
-24
 20
-0.414814631144207
  0
SEQEND
  8
1
  0
POLYLINE
  8
1
 66
1
  0
VERTEX
  8
1
 10
18
 20
-0.414814631144207
  0
VERTEX
  8
1
 10
12
 20
-0.414814631144207
  0
VERTEX
  8
1
 10
12
 20
-4.41481463114421
  0
VERTEX
  8
1
 10
18
 20
-4.41481463114421
  0
VERTEX
  8
1
 10
18
 20
-0.414814631144207
  0
SEQEND
  8
1
  0
LINE
  8
1
 10
18
 20
-0.414814631144206
 11
14.5358983848622
 21
-2.41481463114421
  0
LINE
  8
1
 10
18
 20
-4.41481463114421
 11
14.5358983848622
 21
-2.41481463114421
  0
LINE
  8
1
 10
-18
 20
-0.414814631144206
 11
-18
 21
-4.41481463114421
  0
POLYLINE
  8
1
 66
1
  0
VERTEX
  8
1
 10
-18
 20
-0.414814631144207
  0
VERTEX
  8
1
 10
-12
 20
-0.414814631144207
  0
VERTEX
  8
1
 10
-12
 20
-4.41481463114421
  0
VERTEX
  8
1
 10
-18
 20
-4.41481463114421
  0
VERTEX
  8
1
 10
-18
 20
-0.414814631144207
  0
SEQEND
  8
1
  0
LINE
  8
1
 10
-18
 20
-0.414814631144206
 11
-14.5358983848622
 21
-2.41481463114421
  0
LINE
  8
1
 10
-18
 20
-4.41481463114421
 11
-14.5358983848622
 21
-2.41481463114421
  0
POLYLINE
  8
1
 66
1
  0
VERTEX
  8
1
 10
-12
 20
3.58518536885579
  0
VERTEX
  8
1
 10
0
 20
3.58518536885579
  0
VERTEX
  8
1
 10
0
 20
-4.41481463114421
  0
VERTEX
  8
1
 10
-12
 20
-4.41481463114421
  0
VERTEX
  8
1
 10
-12
 20
3.58518536885579
  0
SEQEND
  8
1
  0
LINE
  8
1
 10
-10
 20
-4.41481463114421
 11
-10
 21
-2.41481463114421
  0
INSERT
  8
1
  2
LCBP1
 10
-10
 20
-2.41481463114421
 50
90
  0
LINE
  8
1
 10
-10
 20
3.58518536885579
 11
-6
 21
-4.41481463114421
  0
INSERT
  8
1
  2
LCA1
 10
-6
 20
-4.41481463114421
 50
-63.434948822922
  0
INSERT
  8
1
  2
LCA1R
 10
-10
 20
3.58518536885579
 50
-63.434948822922
  0
LINE
  8
1
 10
-2
 20
-4.41481463114421
 11
-2
 21
3.58518536885579
  0
INSERT
  8
1
  2
LCA1
 10
-2
 20
3.58518536885579
 50
90
  0
INSERT
  8
1
  2
LCA1R
 10
-2
 20
-4.41481463114421
 50
90
  0
POLYLINE
  8
1
 66
1
  0
VERTEX
  8
1
 10
0
 20
3.58518536885579
  0
VERTEX
  8
1
 10
12
 20
3.58518536885579
  0
VERTEX
  8
1
 10
12
 20
-4.41481463114421
  0
VERTEX
  8
1
 10
0
 20
-4.41481463114421
  0
VERTEX
  8
1
 10
0
 20
3.58518536885579
  0
SEQEND
  8
1
  0
LINE
  8
1
 10
10
 20
-4.41481463114421
 11
10
 21
-2.41481463114421
  0
INSERT
  8
1
  2
LCBP1
 10
10
 20
-2.41481463114421
 50
90
  0
LINE
  8
1
 10
2
 20
-4.41481463114421
 11
2
 21
3.58518536885579
  0
INSERT
  8
1
  2
LCA1
 10
2
 20
3.58518536885579
 50
90
  0
INSERT
  8
1
  2
LCA1R
 10
2
 20
-4.41481463114421
 50
90
  0
LINE
  8
1
 10
6
 20
-4.41481463114421
 11
10
 21
3.58518536885579
  0
INSERT
  8
1
  2
LCA1
 10
10
 20
3.58518536885579
 50
63.434948822922
  0
INSERT
  8
1
  2
LCA1R
 10
6
 20
-4.41481463114421
 50
63.434948822922
  0
CIRCLE
  8
CONNECTIONS
 10
-14
 20
-8.41481463114421
 40
0
  0
CIRCLE
  8
CONNECTIONS
 10
-18
 20
-8.41481463114421
 40
0
  0
CIRCLE
  8
CONNECTIONS
 10
2
 20
7.58518536885579
 40
0
  0
CIRCLE
  8
CONNECTIONS
 10
10
 20
7.58518536885579
 40
0
  0
CIRCLE
  8
CONNECTIONS
 10
10
 20
-8.41481463114421
 40
0
  0
CIRCLE
  8
CONNECTIONS
 10
6
 20
-8.41481463114421
 40
0
  0
CIRCLE
  8
CONNECTIONS
 10
2
 20
-8.41481463114421
 40
0
  0
CIRCLE
  8
CONNECTIONS
 10
24
 20
-2.5148146311442
 40
0
  0
CIRCLE
  8
CONNECTIONS
 10
-24.0152482350667
 20
-2.41481463114421
 40
0
  0
ENDBLK
  8
0
  0
ENDSEC
  0
SECTION
  2
ENTITIES
  0
INSERT
  8
1
  2
B159479_00991125
 10
24
 20
8.41481463114421
  0
ENDSEC
  0
EOF
