  0
SECTION
  2
HEADER
  9
$LIMMIN
 10
0
 20
0
  9
$LIMMAX
 10
52.5
 20
74.25
  9
$EXTMIN
 10
0
 20
37.8712654749552
  9
$EXTMAX
 10
0
 20
16
  0
ENDSEC
  0
SECTION
  2
TABLES
  0
TABLE
  2
LTYPE
 70
9
  0
LTYPE
  2
CONTINUOUS
 70
64
  3
Solid line
 72
65
 73
0
 40
0
  0
LTYPE
  2
DASHED
 70
64
  3
__ __ __ __ __ __ __ __ __
 72
65
 73
2
 40
0.75
 49
0.5
 49
-0.25
  0
LTYPE
  2
DOT
 70
64
  3
...........................
 72
65
 73
2
 40
0.25
 49
0
 49
-0.25
  0
LTYPE
  2
DASHDOT
 70
64
  3
__ . __ . __ . __ . __ . __ . 
 72
65
 73
4
 40
1
 49
0.5
 49
-0.25
 49
0
 49
-0.25
  0
ENDTAB
  0
TABLE
  2
LAYER
 70
10
  0
LAYER
  2
1
 70
0
 62
7
  6
CONTINUOUS
  0
LAYER
  2
CONNECTIONS
 70
0
 62
-7
  6
CONTINUOUS
  0
ENDTAB
  0
ENDSEC
  0
SECTION
  2
BLOCKS
  0
BLOCK
  8
0
  2
TRICON
 70
0
 10
0
 20
0
  0
POLYLINE
  8
1
 70
1
 66
1
 40
0.5
 41
0.5
  0
VERTEX
  8
1
 10
-0.25
 20
0
 42
1
  0
VERTEX
  8
1
 10
0.25
 20
0
 42
1
  0
SEQEND
  8
1
  0
ENDBLK
  8
0
  0
BLOCK
  8
0
  2
TRICONSMALL
 70
0
 10
0
 20
0
  0
POLYLINE
  8
1
 70
1
 66
1
 40
0.25
 41
0.25
  0
VERTEX
  8
1
 10
-0.125
 20
0
 42
1
  0
VERTEX
  8
1
 10
0.125
 20
0
 42
1
  0
SEQEND
  8
1
  0
ENDBLK
  8
0
  0
BLOCK
  8
0
  2
TRICONCIRCLE
 70
0
 10
0
 20
0
  0
CIRCLE
  8
1
 10
0
 20
0
 40
0.5
  0
ENDBLK
  8
0
  0
BLOCK
  8
0
  2
LCBP0
 70
0
 10
0
 20
0
  0
LINE
  8
1
 10
0
 20
-0.46875
 11
0
 21
0.46875
  0
ENDBLK
  8
0
  0
BLOCK
  8
0
  2
LCBP1
 70
0
 10
0
 20
0
  0
LINE
  8
1
 10
0
 20
-0.625
 11
0
 21
0.625
  0
ENDBLK
  8
0
  0
BLOCK
  8
0
  2
LCBP2
 70
0
 10
0
 20
0
  0
LINE
  8
1
 10
0
 20
-0.9375
 11
0
 21
0.9375
  0
ENDBLK
  8
0
  0
BLOCK
  8
0
  2
LCA1
 70
0
 10
0
 20
0
  0
SOLID
  8
1
 62
7 
 10
0
 20
0
 11
-1.4
 21
-0.275
 12
-1.4
 22
0.275
 13
-1.4
 23
0.275
  0
ENDBLK
  8
0
  0
BLOCK
  8
0
  2
LCA2
 70
0
 10
0
 20
0
  0
SOLID
  8
1
 62
7 
 10
0
 20
0
 11
-1.65
 21
-0.525
 12
-1.65
 22
0.525
 13
-1.65
 23
0.525
  0
ENDBLK
  8
0
  0
BLOCK
  8
0
  2
LCA3
 70
0
 10
0
 20
0
  0
SOLID
  8
1
 62
7 
 10
0
 20
0
 11
-2.15
 21
-1.15
 12
-2.15
 22
1.15
 13
-2.15
 23
1.15
  0
ENDBLK
  8
0
  0
BLOCK
  8
0
  2
LCA1R
 70
0
 10
0
 20
0
  0
SOLID
  8
1
 62
7 
 10
0
 20
0
 11
1.4
 21
-0.275
 12
1.4
 22
0.275
 13
1.4
 23
0.275
  0
ENDBLK
  8
0
  0
BLOCK
  8
0
  2
LCA2R
 70
0
 10
0
 20
0
  0
SOLID
  8
1
 62
7 
 10
0
 20
0
 11
1.65
 21
-0.525
 12
1.65
 22
0.525
 13
1.65
 23
0.525
  0
ENDBLK
  8
0
  0
BLOCK
  8
0
  2
LCA3R
 70
0
 10
0
 20
0
  0
SOLID
  8
1
 62
7 
 10
0
 20
0
 11
2.15
 21
-1.15
 12
2.15
 22
1.15
 13
2.15
 23
1.15
  0
ENDBLK
  8
0
  0
BLOCK
  8
0
  2
B68978_00991112
 70
0
 10
0
 20
0
  0
TEXT
  8
1
 40
2.475
 41
0.75
  1
110
  7
STANDARD
 72
2
 10
-11.0996810913086
 20
1.46526740392049
 11
-11.0996810913086
 21
1.46526740392049
  0
TEXT
  8
1
 40
2.475
 41
0.75
  1
33
  7
STANDARD
 73
3
 10
12.0704109191895
 20
-4.87428417205811
 11
12.0704109191895
 21
-4.87428417205811
  0
TEXT
  8
1
 40
2.475
 41
0.75
  1
11
  7
STANDARD
 72
2
 73
3
 10
7.80085423787435
 20
-4.87428417205811
 11
7.80085423787435
 21
-4.87428417205811
  0
LINE
  8
1
 10
7.9356325785319
 20
-4
 11
7.9356325785319
 21
-8
  0
LINE
  8
1
 10
7.9356325785319
 20
8
 11
7.9356325785319
 21
4
  0
LINE
  8
1
 10
11.9356325785319
 20
-4
 11
11.9356325785319
 21
-8
  0
TEXT
  8
1
 40
2.475
 41
0.75
  1
2
  7
STANDARD
 72
2
 10
7.80085423787435
 20
5.23750000000001
 11
7.80085423787435
 21
5.23750000000001
  0
POLYLINE
  8
1
 66
1
  0
VERTEX
  8
1
 10
18.9356325785319
 20
-2
  0
VERTEX
  8
1
 10
18.5189659118652
 20
-4
  0
VERTEX
  8
1
 10
17.6856325785319
 20
0
  0
VERTEX
  8
1
 10
16.8522992451986
 20
-4
  0
VERTEX
  8
1
 10
16.0189659118653
 20
0
  0
VERTEX
  8
1
 10
15.1856325785319
 20
-4
  0
VERTEX
  8
1
 10
14.3522992451986
 20
0
  0
VERTEX
  8
1
 10
13.9356325785319
 20
-2
  0
SEQEND
  8
1
  0
POLYLINE
  8
1
 66
1
  0
VERTEX
  8
1
 10
-8.0643674214681
 20
0
  0
VERTEX
  8
1
 10
-2.0643674214681
 20
0
  0
VERTEX
  8
1
 10
-2.0643674214681
 20
-4
  0
VERTEX
  8
1
 10
-8.0643674214681
 20
-4
  0
VERTEX
  8
1
 10
-8.0643674214681
 20
0
  0
SEQEND
  8
1
  0
LINE
  8
1
 10
-8.0643674214681
 20
0
 11
-4.60026580633034
 21
-2
  0
LINE
  8
1
 10
-8.0643674214681
 20
-4
 11
-4.60026580633034
 21
-2
  0
POLYLINE
  8
1
 70
1
 66
1
 40
0.5
 41
0.5
  0
VERTEX
  8
1
 10
-15.4323812759499
 20
-2
 42
1
  0
VERTEX
  8
1
 10
-14.9323812759499
 20
-2
 42
1
  0
SEQEND
  8
1
  0
CIRCLE
  8
1
 10
-15.1823812759499
 20
-2
 40
1.5
  0
LINE
  8
1
 10
-8.0643674214681
 20
-3
 11
-14.0643674214681
 21
-3
  0
LINE
  8
1
 10
-14.0643674214681
 20
-1
 11
-8.0643674214681
 21
-1
  0
LINE
  8
1
 10
-0.0643674214680985
 20
-4
 11
-0.0643674214680985
 21
-2
  0
INSERT
  8
1
  2
LCBP1
 10
-0.0643674214680985
 20
-2
 50
90
  0
POLYLINE
  8
1
 66
1
  0
VERTEX
  8
1
 10
-2.0643674214681
 20
4
  0
VERTEX
  8
1
 10
5.9356325785319
 20
4
  0
VERTEX
  8
1
 10
5.9356325785319
 20
-4
  0
VERTEX
  8
1
 10
-2.0643674214681
 20
-4
  0
VERTEX
  8
1
 10
-2.0643674214681
 20
4
  0
SEQEND
  8
1
  0
LINE
  8
1
 10
-0.0643674214680985
 20
4
 11
3.9356325785319
 21
-4
  0
INSERT
  8
1
  2
LCA1
 10
3.9356325785319
 20
-4
 50
-63.434948822922
  0
POLYLINE
  8
1
 66
1
  0
VERTEX
  8
1
 10
5.9356325785319
 20
4
  0
VERTEX
  8
1
 10
13.9356325785319
 20
4
  0
VERTEX
  8
1
 10
13.9356325785319
 20
-4
  0
VERTEX
  8
1
 10
5.9356325785319
 20
-4
  0
VERTEX
  8
1
 10
5.9356325785319
 20
4
  0
SEQEND
  8
1
  0
LINE
  8
1
 10
11.9356325785319
 20
-4
 11
11.9356325785319
 21
-2
  0
INSERT
  8
1
  2
LCBP1
 10
11.9356325785319
 20
-2
 50
90
  0
LINE
  8
1
 10
7.9356325785319
 20
-4
 11
7.9356325785319
 21
4
  0
INSERT
  8
1
  2
LCA1
 10
7.9356325785319
 20
4
 50
90
  0
CIRCLE
  8
CONNECTIONS
 10
7.9356325785319
 20
8
 40
0
  0
CIRCLE
  8
CONNECTIONS
 10
7.9356325785319
 20
-8
 40
0
  0
CIRCLE
  8
CONNECTIONS
 10
11.9356325785319
 20
-8
 40
0
  0
ENDBLK
  8
0
  0
ENDSEC
  0
SECTION
  2
ENTITIES
  0
INSERT
  8
1
  2
B68978_00991112
 10
18.9356325785319
 20
8
  0
ENDSEC
  0
EOF
