  0
SECTION
  2
HEADER
  9
$LIMMIN
 10
0
 20
0
  9
$LIMMAX
 10
52.5
 20
74.25
  9
$EXTMIN
 10
0
 20
47.979803723766
  9
$EXTMAX
 10
0
 20
16.3722326755524
  0
ENDSEC
  0
SECTION
  2
TABLES
  0
TABLE
  2
LTYPE
 70
9
  0
LTYPE
  2
CONTINUOUS
 70
64
  3
Solid line
 72
65
 73
0
 40
0
  0
LTYPE
  2
DASHED
 70
64
  3
__ __ __ __ __ __ __ __ __
 72
65
 73
2
 40
0.75
 49
0.5
 49
-0.25
  0
LTYPE
  2
DOT
 70
64
  3
...........................
 72
65
 73
2
 40
0.25
 49
0
 49
-0.25
  0
LTYPE
  2
DASHDOT
 70
64
  3
__ . __ . __ . __ . __ . __ . 
 72
65
 73
4
 40
1
 49
0.5
 49
-0.25
 49
0
 49
-0.25
  0
ENDTAB
  0
TABLE
  2
LAYER
 70
10
  0
LAYER
  2
1
 70
0
 62
7
  6
CONTINUOUS
  0
LAYER
  2
CONNECTIONS
 70
0
 62
-7
  6
CONTINUOUS
  0
ENDTAB
  0
ENDSEC
  0
SECTION
  2
BLOCKS
  0
BLOCK
  8
0
  2
TRICON
 70
0
 10
0
 20
0
  0
POLYLINE
  8
1
 70
1
 66
1
 40
0.5
 41
0.5
  0
VERTEX
  8
1
 10
-0.25
 20
0
 42
1
  0
VERTEX
  8
1
 10
0.25
 20
0
 42
1
  0
SEQEND
  8
1
  0
ENDBLK
  8
0
  0
BLOCK
  8
0
  2
TRICONSMALL
 70
0
 10
0
 20
0
  0
POLYLINE
  8
1
 70
1
 66
1
 40
0.25
 41
0.25
  0
VERTEX
  8
1
 10
-0.125
 20
0
 42
1
  0
VERTEX
  8
1
 10
0.125
 20
0
 42
1
  0
SEQEND
  8
1
  0
ENDBLK
  8
0
  0
BLOCK
  8
0
  2
TRICONCIRCLE
 70
0
 10
0
 20
0
  0
CIRCLE
  8
1
 10
0
 20
0
 40
0.5
  0
ENDBLK
  8
0
  0
BLOCK
  8
0
  2
LCBP0
 70
0
 10
0
 20
0
  0
LINE
  8
1
 10
0
 20
-0.46875
 11
0
 21
0.46875
  0
ENDBLK
  8
0
  0
BLOCK
  8
0
  2
LCBP1
 70
0
 10
0
 20
0
  0
LINE
  8
1
 10
0
 20
-0.625
 11
0
 21
0.625
  0
ENDBLK
  8
0
  0
BLOCK
  8
0
  2
LCBP2
 70
0
 10
0
 20
0
  0
LINE
  8
1
 10
0
 20
-0.9375
 11
0
 21
0.9375
  0
ENDBLK
  8
0
  0
BLOCK
  8
0
  2
LCA1
 70
0
 10
0
 20
0
  0
SOLID
  8
1
 62
7 
 10
0
 20
0
 11
-1.4
 21
-0.275
 12
-1.4
 22
0.275
 13
-1.4
 23
0.275
  0
ENDBLK
  8
0
  0
BLOCK
  8
0
  2
LCA2
 70
0
 10
0
 20
0
  0
SOLID
  8
1
 62
7 
 10
0
 20
0
 11
-1.65
 21
-0.525
 12
-1.65
 22
0.525
 13
-1.65
 23
0.525
  0
ENDBLK
  8
0
  0
BLOCK
  8
0
  2
LCA3
 70
0
 10
0
 20
0
  0
SOLID
  8
1
 62
7 
 10
0
 20
0
 11
-2.15
 21
-1.15
 12
-2.15
 22
1.15
 13
-2.15
 23
1.15
  0
ENDBLK
  8
0
  0
BLOCK
  8
0
  2
LCA1R
 70
0
 10
0
 20
0
  0
SOLID
  8
1
 62
7 
 10
0
 20
0
 11
1.4
 21
-0.275
 12
1.4
 22
0.275
 13
1.4
 23
0.275
  0
ENDBLK
  8
0
  0
BLOCK
  8
0
  2
LCA2R
 70
0
 10
0
 20
0
  0
SOLID
  8
1
 62
7 
 10
0
 20
0
 11
1.65
 21
-0.525
 12
1.65
 22
0.525
 13
1.65
 23
0.525
  0
ENDBLK
  8
0
  0
BLOCK
  8
0
  2
LCA3R
 70
0
 10
0
 20
0
  0
SOLID
  8
1
 62
7 
 10
0
 20
0
 11
2.15
 21
-1.15
 12
2.15
 22
1.15
 13
2.15
 23
1.15
  0
ENDBLK
  8
0
  0
BLOCK
  8
0
  2
B161126_00991064
 70
0
 10
0
 20
0
  0
TEXT
  8
1
 40
2.475
 41
0.75
  1
12
  7
STANDARD
 73
3
 10
17.9072491314642
 20
-5.06040047009786
 11
17.9072491314642
 21
-5.06040047009786
  0
LINE
  8
1
 10
18.010098138117
 20
-4.18611629803975
 11
18.010098138117
 21
-8.18611629803975
  0
TEXT
  8
1
 40
2.475
 41
0.75
  1
14
  7
STANDARD
 72
2
 73
2
 10
-18.5006783816584
 20
-6.78611629803975
 11
-18.5006783816584
 21
-6.78611629803975
  0
LINE
  8
1
 10
-17.989901861883
 20
-4.18611629803975
 11
-17.989901861883
 21
-8.18611629803975
  0
TEXT
  8
1
 40
2.475
 41
0.75
  1
1
  7
STANDARD
 10
2.81009877389988
 20
-8.64861566225688
  0
TEXT
  8
1
 40
2.475
 41
0.75
  1
5
  7
STANDARD
 10
-1.68990122610012
 20
-8.64861566225688
  0
TEXT
  8
1
 40
2.475
 41
0.75
  1
3
  7
STANDARD
 72
2
 10
13.7100975023341
 20
-8.64861566225688
 11
13.7100975023341
 21
-8.64861566225688
  0
LINE
  8
1
 10
10.010098138117
 20
-4.18611629803975
 11
10.010098138117
 21
-8.18611629803975
  0
LINE
  8
1
 10
2.010098138117
 20
-4.18611629803975
 11
2.010098138117
 21
-8.18611629803975
  0
LINE
  8
1
 10
6.010098138117
 20
-4.18611629803975
 11
6.010098138117
 21
-8.18611629803975
  0
TEXT
  8
1
 40
2.475
 41
0.75
  1
4
  7
STANDARD
 72
2
 10
1.77531979745945
 20
5.05138370196025
 11
1.77531979745945
 21
5.05138370196025
  0
TEXT
  8
1
 40
2.475
 41
0.75
  1
2
  7
STANDARD
 72
2
 10
9.77531979745945
 20
5.05138370196025
 11
9.77531979745945
 21
5.05138370196025
  0
LINE
  8
1
 10
2.010098138117
 20
7.81388370196025
 11
2.010098138117
 21
3.81388370196025
  0
LINE
  8
1
 10
10.010098138117
 20
7.81388370196025
 11
10.010098138117
 21
3.81388370196025
  0
TEXT
  8
1
 40
2.475
 41
0.75
  1
12
  7
STANDARD
 73
2
 10
18.010098138117
 20
5.81388370196025
 11
18.010098138117
 21
5.81388370196025
  0
TEXT
  8
1
 40
2.475
 41
0.75
  1
14
  7
STANDARD
 73
2
 10
-22.989901861883
 20
5.81388370196025
 11
-22.989901861883
 21
5.81388370196025
  0
POLYLINE
  8
1
 66
1
  0
VERTEX
  8
1
 10
12.010098138117
 20
-1.18611629803975
  0
VERTEX
  8
1
 10
14.010098138117
 20
-1.18611629803975
  0
VERTEX
  8
1
 10
14.010098138117
 20
-4.18611629803975
  0
VERTEX
  8
1
 10
12.010098138117
 20
-4.18611629803975
  0
VERTEX
  8
1
 10
12.010098138117
 20
-1.18611629803975
  0
SEQEND
  8
1
  0
POLYLINE
  8
1
 66
1
  0
VERTEX
  8
1
 10
-13.989901861883
 20
1.81388370196025
  0
VERTEX
  8
1
 10
-11.989901861883
 20
1.81388370196025
  0
VERTEX
  8
1
 10
-11.989901861883
 20
-4.18611629803975
  0
VERTEX
  8
1
 10
-13.989901861883
 20
-4.18611629803975
  0
VERTEX
  8
1
 10
-13.989901861883
 20
1.81388370196025
  0
SEQEND
  8
1
  0
POLYLINE
  8
1
 66
1
  0
VERTEX
  8
1
 10
18.010098138117
 20
-0.186116298039753
  0
VERTEX
  8
1
 10
14.010098138117
 20
-0.186116298039753
  0
VERTEX
  8
1
 10
14.010098138117
 20
-4.18611629803975
  0
VERTEX
  8
1
 10
18.010098138117
 20
-4.18611629803975
  0
VERTEX
  8
1
 10
18.010098138117
 20
-0.186116298039753
  0
SEQEND
  8
1
  0
LINE
  8
1
 10
18.010098138117
 20
-0.186116298039754
 11
14.5459965229792
 21
-2.18611629803975
  0
LINE
  8
1
 10
18.010098138117
 20
-4.18611629803975
 11
14.5459965229792
 21
-2.18611629803975
  0
POLYLINE
  8
1
 66
1
  0
VERTEX
  8
1
 10
-17.989901861883
 20
-0.186116298039753
  0
VERTEX
  8
1
 10
-13.989901861883
 20
-0.186116298039753
  0
VERTEX
  8
1
 10
-13.989901861883
 20
-4.18611629803975
  0
VERTEX
  8
1
 10
-17.989901861883
 20
-4.18611629803975
  0
VERTEX
  8
1
 10
-17.989901861883
 20
-0.186116298039753
  0
SEQEND
  8
1
  0
LINE
  8
1
 10
-17.989901861883
 20
-0.186116298039754
 11
-17.989901861883
 21
-4.18611629803975
  0
LINE
  8
1
 10
-17.989901861883
 20
-0.186116298039754
 11
-14.5258002467452
 21
-2.18611629803975
  0
LINE
  8
1
 10
-17.989901861883
 20
-4.18611629803975
 11
-14.5258002467452
 21
-2.18611629803975
  0
LINE
  8
1
 10
21.989901861883
 20
-4.14883503629715
 11
19.989901861883
 21
-0.148835036297153
  0
POLYLINE
  8
1
 66
1
  0
VERTEX
  8
1
 10
23.989901861883
 20
-0.148835036297154
  0
VERTEX
  8
1
 10
17.989901861883
 20
-0.148835036297154
  0
VERTEX
  8
1
 10
17.989901861883
 20
-4.14883503629715
  0
VERTEX
  8
1
 10
23.989901861883
 20
-4.14883503629715
  0
VERTEX
  8
1
 10
23.989901861883
 20
-0.148835036297154
  0
SEQEND
  8
1
  0
LINE
  8
1
 10
-21.989901861883
 20
-4.18611629803975
 11
-19.989901861883
 21
-0.186116298039754
  0
POLYLINE
  8
1
 66
1
  0
VERTEX
  8
1
 10
-23.989901861883
 20
-0.186116298039753
  0
VERTEX
  8
1
 10
-17.989901861883
 20
-0.186116298039753
  0
VERTEX
  8
1
 10
-17.989901861883
 20
-4.18611629803975
  0
VERTEX
  8
1
 10
-23.989901861883
 20
-4.18611629803975
  0
VERTEX
  8
1
 10
-23.989901861883
 20
-0.186116298039753
  0
SEQEND
  8
1
  0
LINE
  8
1
 10
22.010098138117
 20
3.31388370196025
 11
18.010098138117
 21
3.31388370196025
  0
LINE
  8
1
 10
22.010098138117
 20
3.81388370196025
 11
22.010098138117
 21
0.813883701960246
  0
LINE
  8
1
 10
22.010098138117
 20
1.31388370196025
 11
18.010098138117
 21
1.31388370196025
  0
LINE
  8
1
 10
18.010098138117
 20
-0.186116298039754
 11
18.010098138117
 21
3.81388370196025
  0
LINE
  8
1
 10
-21.989901861883
 20
3.31388370196025
 11
-17.989901861883
 21
3.31388370196025
  0
LINE
  8
1
 10
-21.989901861883
 20
3.81388370196025
 11
-21.989901861883
 21
0.813883701960246
  0
LINE
  8
1
 10
-21.989901861883
 20
1.31388370196025
 11
-17.989901861883
 21
1.31388370196025
  0
LINE
  8
1
 10
-17.989901861883
 20
-0.186116298039754
 11
-17.989901861883
 21
3.81388370196025
  0
LINE
  8
1
 10
-9.989901861883
 20
-4.18611629803975
 11
-9.989901861883
 21
-2.18611629803975
  0
INSERT
  8
1
  2
LCBP1
 10
-9.989901861883
 20
-2.18611629803975
 50
90
  0
POLYLINE
  8
1
 66
1
  0
VERTEX
  8
1
 10
-11.989901861883
 20
3.81388370196025
  0
VERTEX
  8
1
 10
0.0100981381170016
 20
3.81388370196025
  0
VERTEX
  8
1
 10
0.0100981381170016
 20
-4.18611629803975
  0
VERTEX
  8
1
 10
-11.989901861883
 20
-4.18611629803975
  0
VERTEX
  8
1
 10
-11.989901861883
 20
3.81388370196025
  0
SEQEND
  8
1
  0
LINE
  8
1
 10
-9.989901861883
 20
3.81388370196025
 11
-5.989901861883
 21
-4.18611629803975
  0
INSERT
  8
1
  2
LCA1
 10
-5.989901861883
 20
-4.18611629803975
 50
-63.434948822922
  0
INSERT
  8
1
  2
LCA1R
 10
-9.989901861883
 20
3.81388370196025
 50
-63.434948822922
  0
LINE
  8
1
 10
-1.989901861883
 20
-4.18611629803975
 11
-1.989901861883
 21
3.81388370196025
  0
INSERT
  8
1
  2
LCA1
 10
-1.989901861883
 20
3.81388370196025
 50
90
  0
INSERT
  8
1
  2
LCA1R
 10
-1.989901861883
 20
-4.18611629803975
 50
90
  0
LINE
  8
1
 10
10.010098138117
 20
-4.18611629803975
 11
10.010098138117
 21
-2.18611629803975
  0
INSERT
  8
1
  2
LCBP1
 10
10.010098138117
 20
-2.18611629803975
 50
90
  0
POLYLINE
  8
1
 66
1
  0
VERTEX
  8
1
 10
0.0100981381170016
 20
3.81388370196025
  0
VERTEX
  8
1
 10
12.010098138117
 20
3.81388370196025
  0
VERTEX
  8
1
 10
12.010098138117
 20
-4.18611629803975
  0
VERTEX
  8
1
 10
0.0100981381170016
 20
-4.18611629803975
  0
VERTEX
  8
1
 10
0.0100981381170016
 20
3.81388370196025
  0
SEQEND
  8
1
  0
LINE
  8
1
 10
2.010098138117
 20
-4.18611629803975
 11
2.010098138117
 21
3.81388370196025
  0
INSERT
  8
1
  2
LCA1
 10
2.010098138117
 20
3.81388370196025
 50
90
  0
INSERT
  8
1
  2
LCA1R
 10
2.010098138117
 20
-4.18611629803975
 50
90
  0
LINE
  8
1
 10
6.010098138117
 20
-4.18611629803975
 11
10.010098138117
 21
3.81388370196025
  0
INSERT
  8
1
  2
LCA1
 10
10.010098138117
 20
3.81388370196025
 50
63.434948822922
  0
INSERT
  8
1
  2
LCA1R
 10
6.010098138117
 20
-4.18611629803975
 50
63.434948822922
  0
CIRCLE
  8
CONNECTIONS
 10
24.010098138117
 20
-2.18611629803976
 40
0
  0
CIRCLE
  8
CONNECTIONS
 10
-23.9051500969497
 20
-2.18611629803976
 40
0
  0
CIRCLE
  8
CONNECTIONS
 10
18.010098138117
 20
-8.18611629803975
 40
0
  0
CIRCLE
  8
CONNECTIONS
 10
-17.989901861883
 20
-8.18611629803975
 40
0
  0
CIRCLE
  8
CONNECTIONS
 10
2.010098138117
 20
7.81388370196025
 40
0
  0
CIRCLE
  8
CONNECTIONS
 10
6.010098138117
 20
-8.68611629803975
 40
0
  0
CIRCLE
  8
CONNECTIONS
 10
10.010098138117
 20
-8.68611629803975
 40
0
  0
CIRCLE
  8
CONNECTIONS
 10
10.010098138117
 20
7.81388370196025
 40
0
  0
CIRCLE
  8
CONNECTIONS
 10
2.010098138117
 20
-8.68611629803975
 40
0
  0
ENDBLK
  8
0
  0
ENDSEC
  0
SECTION
  2
ENTITIES
  0
INSERT
  8
1
  2
B161126_00991064
 10
23.989901861883
 20
8.18611629803975
  0
ENDSEC
  0
EOF
