  0
SECTION
  2
HEADER
  9
$LIMMIN
 10
0
 20
0
  9
$LIMMAX
 10
52.5
 20
74.25
  9
$EXTMIN
 10
0
 20
60
  9
$EXTMAX
 10
0
 20
16.0645760743322
  0
ENDSEC
  0
SECTION
  2
TABLES
  0
TABLE
  2
LTYPE
 70
9
  0
LTYPE
  2
CONTINUOUS
 70
64
  3
Solid line
 72
65
 73
0
 40
0
  0
LTYPE
  2
DASHED
 70
64
  3
__ __ __ __ __ __ __ __ __
 72
65
 73
2
 40
0.75
 49
0.5
 49
-0.25
  0
LTYPE
  2
DOT
 70
64
  3
...........................
 72
65
 73
2
 40
0.25
 49
0
 49
-0.25
  0
LTYPE
  2
DASHDOT
 70
64
  3
__ . __ . __ . __ . __ . __ . 
 72
65
 73
4
 40
1
 49
0.5
 49
-0.25
 49
0
 49
-0.25
  0
ENDTAB
  0
TABLE
  2
LAYER
 70
10
  0
LAYER
  2
1
 70
0
 62
7
  6
CONTINUOUS
  0
LAYER
  2
CONNECTIONS
 70
0
 62
-7
  6
CONTINUOUS
  0
ENDTAB
  0
ENDSEC
  0
SECTION
  2
BLOCKS
  0
BLOCK
  8
0
  2
TRICON
 70
0
 10
0
 20
0
  0
POLYLINE
  8
1
 70
1
 66
1
 40
0.5
 41
0.5
  0
VERTEX
  8
1
 10
-0.25
 20
0
 42
1
  0
VERTEX
  8
1
 10
0.25
 20
0
 42
1
  0
SEQEND
  8
1
  0
ENDBLK
  8
0
  0
BLOCK
  8
0
  2
TRICONSMALL
 70
0
 10
0
 20
0
  0
POLYLINE
  8
1
 70
1
 66
1
 40
0.25
 41
0.25
  0
VERTEX
  8
1
 10
-0.125
 20
0
 42
1
  0
VERTEX
  8
1
 10
0.125
 20
0
 42
1
  0
SEQEND
  8
1
  0
ENDBLK
  8
0
  0
BLOCK
  8
0
  2
TRICONCIRCLE
 70
0
 10
0
 20
0
  0
CIRCLE
  8
1
 10
0
 20
0
 40
0.5
  0
ENDBLK
  8
0
  0
BLOCK
  8
0
  2
LCBP0
 70
0
 10
0
 20
0
  0
LINE
  8
1
 10
0
 20
-0.46875
 11
0
 21
0.46875
  0
ENDBLK
  8
0
  0
BLOCK
  8
0
  2
LCBP1
 70
0
 10
0
 20
0
  0
LINE
  8
1
 10
0
 20
-0.625
 11
0
 21
0.625
  0
ENDBLK
  8
0
  0
BLOCK
  8
0
  2
LCBP2
 70
0
 10
0
 20
0
  0
LINE
  8
1
 10
0
 20
-0.9375
 11
0
 21
0.9375
  0
ENDBLK
  8
0
  0
BLOCK
  8
0
  2
LCA1
 70
0
 10
0
 20
0
  0
SOLID
  8
1
 62
7 
 10
0
 20
0
 11
-1.4
 21
-0.275
 12
-1.4
 22
0.275
 13
-1.4
 23
0.275
  0
ENDBLK
  8
0
  0
BLOCK
  8
0
  2
LCA2
 70
0
 10
0
 20
0
  0
SOLID
  8
1
 62
7 
 10
0
 20
0
 11
-1.65
 21
-0.525
 12
-1.65
 22
0.525
 13
-1.65
 23
0.525
  0
ENDBLK
  8
0
  0
BLOCK
  8
0
  2
LCA3
 70
0
 10
0
 20
0
  0
SOLID
  8
1
 62
7 
 10
0
 20
0
 11
-2.15
 21
-1.15
 12
-2.15
 22
1.15
 13
-2.15
 23
1.15
  0
ENDBLK
  8
0
  0
BLOCK
  8
0
  2
LCA1R
 70
0
 10
0
 20
0
  0
SOLID
  8
1
 62
7 
 10
0
 20
0
 11
1.4
 21
-0.275
 12
1.4
 22
0.275
 13
1.4
 23
0.275
  0
ENDBLK
  8
0
  0
BLOCK
  8
0
  2
LCA2R
 70
0
 10
0
 20
0
  0
SOLID
  8
1
 62
7 
 10
0
 20
0
 11
1.65
 21
-0.525
 12
1.65
 22
0.525
 13
1.65
 23
0.525
  0
ENDBLK
  8
0
  0
BLOCK
  8
0
  2
LCA3R
 70
0
 10
0
 20
0
  0
SOLID
  8
1
 62
7 
 10
0
 20
0
 11
2.15
 21
-1.15
 12
2.15
 22
1.15
 13
2.15
 23
1.15
  0
ENDBLK
  8
0
  0
BLOCK
  8
0
  2
B198275_00991031
 70
0
 10
0
 20
0
  0
TEXT
  8
1
 40
2.475
 41
0.75
  1
82
  7
STANDARD
 72
2
 73
3
 10
19.8971509933472
 20
-4.90657220922419
 11
19.8971509933472
 21
-4.90657220922419
  0
LINE
  8
1
 10
20
 20
-4.03228803716608
 11
20
 21
-8.03228803716608
  0
TEXT
  8
1
 40
2.4
 41
0.75
  1
84
  7
STANDARD
 10
-20.1028490066528
 20
-8.08228740138321
  0
LINE
  8
1
 10
-20
 20
-4.03228803716608
 11
-20
 21
-8.03228803716608
  0
TEXT
  8
1
 40
2.475
 41
0.75
  1
12
  7
STANDARD
 73
3
 10
23.8971509933472
 20
-4.90657220922419
 11
23.8971509933472
 21
-4.90657220922419
  0
LINE
  8
1
 10
24
 20
-4.03228803716608
 11
24
 21
-8.03228803716608
  0
TEXT
  8
1
 40
2.4
 41
0.75
  1
14
  7
STANDARD
 72
2
 10
-24.2615881601969
 20
-8.08782157344131
 11
-24.2615881601969
 21
-8.08782157344131
  0
LINE
  8
1
 10
-23.9587391535441
 20
-3.98782220922419
 11
-23.9587391535441
 21
-7.98782220922419
  0
TEXT
  8
1
 40
2.4
 41
0.75
  1
12
  7
STANDARD
 73
3
 10
23.5838008535033
 20
7.4
 11
23.5838008535033
 21
7.4
  0
TEXT
  8
1
 40
2.4
 41
0.75
  1
14
  7
STANDARD
 72
2
 73
3
 10
-23.6676568349202
 20
7.43228803716609
 11
-23.6676568349202
 21
7.43228803716609
  0
TEXT
  8
1
 40
2.4
 41
0.75
  1
1
  7
STANDARD
 72
2
 10
0.582610511779779
 20
-8.11915625417553
 11
0.582610511779779
 21
-8.11915625417553
  0
TEXT
  8
1
 40
2.4
 41
0.75
  1
3
  7
STANDARD
 10
4.6
 20
-8.13228803716608
  0
TEXT
  8
1
 40
2.4
 41
0.75
  1
5
  7
STANDARD
 72
2
 10
-4.23477897644043
 20
-8.03228803716608
 11
-4.23477897644043
 21
-8.03228803716608
  0
TEXT
  8
1
 40
2.4
 41
0.75
  1
2
  7
STANDARD
 72
2
 10
3.86522165934245
 20
5.16771196283392
 11
3.86522165934245
 21
5.16771196283392
  0
TEXT
  8
1
 40
2.4
 41
0.75
  1
4
  7
STANDARD
 72
2
 10
-4.33477834065755
 20
5.16771196283392
 11
-4.33477834065755
 21
5.16771196283392
  0
LINE
  8
1
 10
-4
 20
-4.03228803716608
 11
-4
 21
-8.03228803716608
  0
LINE
  8
1
 10
0
 20
-4.03228803716608
 11
0
 21
-8.03228803716608
  0
LINE
  8
1
 10
-4
 20
7.96771196283391
 11
-4
 21
3.96771196283391
  0
LINE
  8
1
 10
4
 20
7.96771196283391
 11
4
 21
3.96771196283391
  0
LINE
  8
1
 10
4
 20
-4.03228803716608
 11
4
 21
-8.03228803716608
  0
LINE
  8
1
 10
18
 20
7.96771196283391
 11
18
 21
3.96771196283391
  0
LINE
  8
1
 10
-18
 20
7.96771196283391
 11
-18
 21
3.96771196283391
  0
LINE
  8
1
 10
28
 20
-4.03228803716608
 11
26
 21
-0.0322880371660853
  0
POLYLINE
  8
1
 66
1
  0
VERTEX
  8
1
 10
30
 20
-0.0322880371660865
  0
VERTEX
  8
1
 10
24
 20
-0.0322880371660865
  0
VERTEX
  8
1
 10
24
 20
-4.03228803716609
  0
VERTEX
  8
1
 10
30
 20
-4.03228803716609
  0
VERTEX
  8
1
 10
30
 20
-0.0322880371660865
  0
SEQEND
  8
1
  0
LINE
  8
1
 10
-28
 20
-4.03228803716608
 11
-26
 21
-0.0322880371660853
  0
POLYLINE
  8
1
 66
1
  0
VERTEX
  8
1
 10
-30
 20
-0.0322880371660865
  0
VERTEX
  8
1
 10
-24
 20
-0.0322880371660865
  0
VERTEX
  8
1
 10
-24
 20
-4.03228803716609
  0
VERTEX
  8
1
 10
-30
 20
-4.03228803716609
  0
VERTEX
  8
1
 10
-30
 20
-0.0322880371660865
  0
SEQEND
  8
1
  0
POLYLINE
  8
1
 66
1
  0
VERTEX
  8
1
 10
23
 20
5.96771196283391
  0
VERTEX
  8
1
 10
22.5833333333332
 20
3.96771196283391
  0
VERTEX
  8
1
 10
21.75
 20
7.96771196283391
  0
VERTEX
  8
1
 10
20.9166666666667
 20
3.96771196283391
  0
VERTEX
  8
1
 10
20.0833333333333
 20
7.96771196283391
  0
VERTEX
  8
1
 10
19.25
 20
3.96771196283391
  0
VERTEX
  8
1
 10
18.4166666666667
 20
7.96771196283391
  0
VERTEX
  8
1
 10
18
 20
5.96771196283391
  0
SEQEND
  8
1
  0
POLYLINE
  8
1
 66
1
  0
VERTEX
  8
1
 10
-23
 20
5.96771196283391
  0
VERTEX
  8
1
 10
-22.5833333333333
 20
3.96771196283391
  0
VERTEX
  8
1
 10
-21.75
 20
7.96771196283391
  0
VERTEX
  8
1
 10
-20.9166666666667
 20
3.96771196283391
  0
VERTEX
  8
1
 10
-20.0833333333333
 20
7.96771196283391
  0
VERTEX
  8
1
 10
-19.25
 20
3.96771196283391
  0
VERTEX
  8
1
 10
-18.4166666666667
 20
7.96771196283391
  0
VERTEX
  8
1
 10
-18
 20
5.96771196283391
  0
SEQEND
  8
1
  0
LINE
  8
1
 10
28
 20
3.46771196283391
 11
24
 21
3.46771196283391
  0
LINE
  8
1
 10
28
 20
3.96771196283391
 11
28
 21
0.967711962833915
  0
LINE
  8
1
 10
28
 20
1.46771196283391
 11
24
 21
1.46771196283391
  0
LINE
  8
1
 10
24
 20
3.96771196283391
 11
24
 21
-0.0322880371660853
  0
LINE
  8
1
 10
-28
 20
3.46771196283391
 11
-24
 21
3.46771196283391
  0
LINE
  8
1
 10
-28
 20
3.96771196283391
 11
-28
 21
0.967711962833915
  0
LINE
  8
1
 10
-28
 20
1.46771196283391
 11
-24
 21
1.46771196283391
  0
LINE
  8
1
 10
-24
 20
-0.0322880371660853
 11
-24
 21
3.96771196283391
  0
POLYLINE
  8
1
 66
1
  0
VERTEX
  8
1
 10
23.9726938881958
 20
-0.0331902525277101
  0
VERTEX
  8
1
 10
17.9726938881958
 20
-0.0331902525277101
  0
VERTEX
  8
1
 10
17.9726938881958
 20
-4.03319025252771
  0
VERTEX
  8
1
 10
23.9726938881958
 20
-4.03319025252771
  0
VERTEX
  8
1
 10
23.9726938881958
 20
-0.0331902525277101
  0
SEQEND
  8
1
  0
LINE
  8
1
 10
23.9726938881958
 20
-0.0331902525277101
 11
20.508592273058
 21
-2.03319025252771
  0
LINE
  8
1
 10
23.9726938881958
 20
-4.03319025252771
 11
20.508592273058
 21
-2.03319025252771
  0
POLYLINE
  8
1
 66
1
  0
VERTEX
  8
1
 10
-24
 20
-0.0322880371660865
  0
VERTEX
  8
1
 10
-18
 20
-0.0322880371660865
  0
VERTEX
  8
1
 10
-18
 20
-4.03228803716609
  0
VERTEX
  8
1
 10
-24
 20
-4.03228803716609
  0
VERTEX
  8
1
 10
-24
 20
-0.0322880371660865
  0
SEQEND
  8
1
  0
LINE
  8
1
 10
-24
 20
-0.0322880371660853
 11
-20.5358983848622
 21
-2.03228803716609
  0
LINE
  8
1
 10
-24
 20
-4.03228803716608
 11
-20.5358983848622
 21
-2.03228803716609
  0
POLYLINE
  8
1
 70
1
 66
1
 40
0.5
 41
0.5
  0
VERTEX
  8
1
 10
-0.25
 20
-0.0322880371660853
 42
1
  0
VERTEX
  8
1
 10
0.25
 20
-0.0322880371660853
 42
1
  0
SEQEND
  8
1
  0
LINE
  8
1
 10
-4
 20
-0.0322880371660853
 11
4
 21
-0.0322880371660853
  0
LINE
  8
1
 10
0
 20
-0.0322880371660853
 11
0
 21
-4.03228803716608
  0
INSERT
  8
1
  2
LCA1
 10
0
 20
-4.03228803716608
 50
-90
  0
LINE
  8
1
 10
4
 20
-0.0322880371660853
 11
4
 21
3.96771196283391
  0
INSERT
  8
1
  2
LCA1
 10
4
 20
3.96771196283391
 50
90
  0
LINE
  8
1
 10
-4
 20
-0.0322880371660853
 11
-4
 21
3.96771196283391
  0
INSERT
  8
1
  2
LCA1
 10
-4
 20
3.96771196283391
 50
90
  0
LINE
  8
1
 10
-4
 20
-4.03228803716608
 11
-4
 21
-2.03228803716609
  0
INSERT
  8
1
  2
LCBP1
 10
-4
 20
-2.03228803716609
 50
90
  0
LINE
  8
1
 10
4
 20
-4.03228803716608
 11
4
 21
-2.03228803716609
  0
INSERT
  8
1
  2
LCBP1
 10
4
 20
-2.03228803716609
 50
90
  0
POLYLINE
  8
1
 66
1
  0
VERTEX
  8
1
 10
-6
 20
3.96771196283391
  0
VERTEX
  8
1
 10
6
 20
3.96771196283391
  0
VERTEX
  8
1
 10
6
 20
-4.03228803716609
  0
VERTEX
  8
1
 10
-6
 20
-4.03228803716609
  0
VERTEX
  8
1
 10
-6
 20
3.96771196283391
  0
SEQEND
  8
1
  0
LINE
  8
1
 10
-16
 20
-4.03228803716608
 11
-16
 21
-2.03228803716609
  0
INSERT
  8
1
  2
LCBP1
 10
-16
 20
-2.03228803716609
 50
90
  0
POLYLINE
  8
1
 66
1
  0
VERTEX
  8
1
 10
-18
 20
3.96771196283391
  0
VERTEX
  8
1
 10
-6
 20
3.96771196283391
  0
VERTEX
  8
1
 10
-6
 20
-4.03228803716609
  0
VERTEX
  8
1
 10
-18
 20
-4.03228803716609
  0
VERTEX
  8
1
 10
-18
 20
3.96771196283391
  0
SEQEND
  8
1
  0
LINE
  8
1
 10
-16
 20
3.96771196283391
 11
-12
 21
-4.03228803716608
  0
INSERT
  8
1
  2
LCA1
 10
-12
 20
-4.03228803716608
 50
-63.434948822922
  0
INSERT
  8
1
  2
LCA1R
 10
-16
 20
3.96771196283391
 50
-63.434948822922
  0
LINE
  8
1
 10
-8
 20
-4.03228803716608
 11
-8
 21
3.96771196283391
  0
INSERT
  8
1
  2
LCA1
 10
-8
 20
3.96771196283391
 50
90
  0
INSERT
  8
1
  2
LCA1R
 10
-8
 20
-4.03228803716608
 50
90
  0
LINE
  8
1
 10
16
 20
-4.03228803716608
 11
16
 21
-2.03228803716609
  0
INSERT
  8
1
  2
LCBP0
 10
16
 20
-2.03228803716609
 50
90
  0
POLYLINE
  8
1
 66
1
  0
VERTEX
  8
1
 10
6
 20
3.96771196283391
  0
VERTEX
  8
1
 10
18
 20
3.96771196283391
  0
VERTEX
  8
1
 10
18
 20
-4.03228803716609
  0
VERTEX
  8
1
 10
6
 20
-4.03228803716609
  0
VERTEX
  8
1
 10
6
 20
3.96771196283391
  0
SEQEND
  8
1
  0
LINE
  8
1
 10
8
 20
-4.03228803716608
 11
8
 21
3.96771196283391
  0
INSERT
  8
1
  2
LCA1
 10
8
 20
3.96771196283391
 50
90
  0
INSERT
  8
1
  2
LCA1R
 10
8
 20
-4.03228803716608
 50
90
  0
LINE
  8
1
 10
12
 20
-4.03228803716608
 11
16
 21
3.96771196283391
  0
INSERT
  8
1
  2
LCA1
 10
16
 20
3.96771196283391
 50
63.434948822922
  0
INSERT
  8
1
  2
LCA1R
 10
12
 20
-4.03228803716608
 50
63.434948822922
  0
CIRCLE
  8
CONNECTIONS
 10
20
 20
-8.03228803716608
 40
0
  0
CIRCLE
  8
CONNECTIONS
 10
-20
 20
-8.03228803716608
 40
0
  0
CIRCLE
  8
CONNECTIONS
 10
24
 20
-8.03228803716608
 40
0
  0
CIRCLE
  8
CONNECTIONS
 10
-23.9587391535441
 20
-7.98782220922419
 40
0
  0
CIRCLE
  8
CONNECTIONS
 10
30
 20
-2.03228803716608
 40
0
  0
CIRCLE
  8
CONNECTIONS
 10
-30.0152482350667
 20
-2.03228803716609
 40
0
  0
CIRCLE
  8
CONNECTIONS
 10
4
 20
7.96771196283391
 40
0
  0
CIRCLE
  8
CONNECTIONS
 10
-4
 20
7.96771196283391
 40
0
  0
CIRCLE
  8
CONNECTIONS
 10
0
 20
-8.03228803716608
 40
0
  0
CIRCLE
  8
CONNECTIONS
 10
-4
 20
-8.03228803716608
 40
0
  0
CIRCLE
  8
CONNECTIONS
 10
4
 20
-8.03228803716608
 40
0
  0
ENDBLK
  8
0
  0
ENDSEC
  0
SECTION
  2
ENTITIES
  0
INSERT
  8
1
  2
B198275_00991031
 10
30
 20
8.03228803716608
  0
ENDSEC
  0
EOF
