  0
SECTION
  2
HEADER
  9
$LIMMIN
 10
0
 20
0
  9
$LIMMAX
 10
52.5
 20
74.25
  9
$EXTMIN
 10
0
 20
41
  9
$EXTMAX
 10
0
 20
16.529628944397
  0
ENDSEC
  0
SECTION
  2
TABLES
  0
TABLE
  2
LTYPE
 70
9
  0
LTYPE
  2
CONTINUOUS
 70
64
  3
Solid line
 72
65
 73
0
 40
0
  0
LTYPE
  2
DASHED
 70
64
  3
__ __ __ __ __ __ __ __ __
 72
65
 73
2
 40
0.75
 49
0.5
 49
-0.25
  0
LTYPE
  2
DOT
 70
64
  3
...........................
 72
65
 73
2
 40
0.25
 49
0
 49
-0.25
  0
LTYPE
  2
DASHDOT
 70
64
  3
__ . __ . __ . __ . __ . __ . 
 72
65
 73
4
 40
1
 49
0.5
 49
-0.25
 49
0
 49
-0.25
  0
ENDTAB
  0
TABLE
  2
LAYER
 70
10
  0
LAYER
  2
1
 70
0
 62
7
  6
CONTINUOUS
  0
LAYER
  2
CONNECTIONS
 70
0
 62
-7
  6
CONTINUOUS
  0
ENDTAB
  0
ENDSEC
  0
SECTION
  2
BLOCKS
  0
BLOCK
  8
0
  2
TRICON
 70
0
 10
0
 20
0
  0
POLYLINE
  8
1
 70
1
 66
1
 40
0.5
 41
0.5
  0
VERTEX
  8
1
 10
-0.25
 20
0
 42
1
  0
VERTEX
  8
1
 10
0.25
 20
0
 42
1
  0
SEQEND
  8
1
  0
ENDBLK
  8
0
  0
BLOCK
  8
0
  2
TRICONSMALL
 70
0
 10
0
 20
0
  0
POLYLINE
  8
1
 70
1
 66
1
 40
0.25
 41
0.25
  0
VERTEX
  8
1
 10
-0.125
 20
0
 42
1
  0
VERTEX
  8
1
 10
0.125
 20
0
 42
1
  0
SEQEND
  8
1
  0
ENDBLK
  8
0
  0
BLOCK
  8
0
  2
TRICONCIRCLE
 70
0
 10
0
 20
0
  0
CIRCLE
  8
1
 10
0
 20
0
 40
0.5
  0
ENDBLK
  8
0
  0
BLOCK
  8
0
  2
LCBP0
 70
0
 10
0
 20
0
  0
LINE
  8
1
 10
0
 20
-0.46875
 11
0
 21
0.46875
  0
ENDBLK
  8
0
  0
BLOCK
  8
0
  2
LCBP1
 70
0
 10
0
 20
0
  0
LINE
  8
1
 10
0
 20
-0.625
 11
0
 21
0.625
  0
ENDBLK
  8
0
  0
BLOCK
  8
0
  2
LCBP2
 70
0
 10
0
 20
0
  0
LINE
  8
1
 10
0
 20
-0.9375
 11
0
 21
0.9375
  0
ENDBLK
  8
0
  0
BLOCK
  8
0
  2
LCA1
 70
0
 10
0
 20
0
  0
SOLID
  8
1
 62
7 
 10
0
 20
0
 11
-1.4
 21
-0.275
 12
-1.4
 22
0.275
 13
-1.4
 23
0.275
  0
ENDBLK
  8
0
  0
BLOCK
  8
0
  2
LCA2
 70
0
 10
0
 20
0
  0
SOLID
  8
1
 62
7 
 10
0
 20
0
 11
-1.65
 21
-0.525
 12
-1.65
 22
0.525
 13
-1.65
 23
0.525
  0
ENDBLK
  8
0
  0
BLOCK
  8
0
  2
LCA3
 70
0
 10
0
 20
0
  0
SOLID
  8
1
 62
7 
 10
0
 20
0
 11
-2.15
 21
-1.15
 12
-2.15
 22
1.15
 13
-2.15
 23
1.15
  0
ENDBLK
  8
0
  0
BLOCK
  8
0
  2
LCA1R
 70
0
 10
0
 20
0
  0
SOLID
  8
1
 62
7 
 10
0
 20
0
 11
1.4
 21
-0.275
 12
1.4
 22
0.275
 13
1.4
 23
0.275
  0
ENDBLK
  8
0
  0
BLOCK
  8
0
  2
LCA2R
 70
0
 10
0
 20
0
  0
SOLID
  8
1
 62
7 
 10
0
 20
0
 11
1.65
 21
-0.525
 12
1.65
 22
0.525
 13
1.65
 23
0.525
  0
ENDBLK
  8
0
  0
BLOCK
  8
0
  2
LCA3R
 70
0
 10
0
 20
0
  0
SOLID
  8
1
 62
7 
 10
0
 20
0
 11
2.15
 21
-1.15
 12
2.15
 22
1.15
 13
2.15
 23
1.15
  0
ENDBLK
  8
0
  0
BLOCK
  8
0
  2
B159736_00991025
 70
0
 10
0
 20
0
  0
TEXT
  8
1
 40
2.4
 41
0.75
  1
14
  7
STANDARD
 72
2
 73
2
 10
-13.3676568349202
 20
5.93518536885579
 11
-13.3676568349202
 21
5.93518536885579
  0
TEXT
  8
1
 40
2.4
 41
0.75
  1
84
  7
STANDARD
 10
-10.7028490066528
 20
-8.66481399536133
  0
LINE
  8
1
 10
-10.5
 20
-4.2648146311442
 11
-10.5
 21
-8.2648146311442
  0
TEXT
  8
1
 40
2.4
 41
0.75
  1
14
  7
STANDARD
 72
2
 10
-14.7107765197754
 20
-8.43704722722371
 11
-14.7107765197754
 21
-8.43704722722371
  0
LINE
  8
1
 10
-14.5
 20
-4.2648146311442
 11
-14.5
 21
-8.2648146311442
  0
TEXT
  8
1
 40
2.4
 41
0.75
  1
1
  7
STANDARD
 72
2
 10
10.0652210235596
 20
-8.03704722722371
 11
10.0652210235596
 21
-8.03704722722371
  0
TEXT
  8
1
 40
2.4
 41
0.75
  1
3
  7
STANDARD
 10
13.6
 20
-8.13704722722371
  0
TEXT
  8
1
 40
2.4
 41
0.75
  1
5
  7
STANDARD
 72
2
 10
5.76522102355957
 20
-8.03704722722371
 11
5.76522102355957
 21
-8.03704722722371
  0
TEXT
  8
1
 40
2.4
 41
0.75
  1
2
  7
STANDARD
 72
2
 10
13.7652210235596
 20
4.96295277277628
 11
13.7652210235596
 21
4.96295277277628
  0
TEXT
  8
1
 40
2.4
 41
0.75
  1
4
  7
STANDARD
 72
2
 10
5.44439822307959
 20
4.9351853688558
 11
5.44439822307959
 21
4.9351853688558
  0
LINE
  8
1
 10
13.5
 20
3.7351853688558
 11
13.5
 21
7.7351853688558
  0
LINE
  8
1
 10
5.5
 20
-4.2648146311442
 11
5.5
 21
-8.2648146311442
  0
LINE
  8
1
 10
5.5
 20
7.7351853688558
 11
5.5
 21
3.7351853688558
  0
LINE
  8
1
 10
9.5
 20
-4.2648146311442
 11
9.5
 21
-8.2648146311442
  0
LINE
  8
1
 10
13.5
 20
-4.2648146311442
 11
13.5
 21
-8.2648146311442
  0
LINE
  8
1
 10
-18.5
 20
3.2351853688558
 11
-14.5
 21
3.2351853688558
  0
LINE
  8
1
 10
-18.5
 20
3.7351853688558
 11
-18.5
 21
0.735185368855795
  0
LINE
  8
1
 10
-18.5
 20
1.2351853688558
 11
-14.5
 21
1.2351853688558
  0
LINE
  8
1
 10
-14.5
 20
-0.264814631144205
 11
-14.5
 21
3.7351853688558
  0
LINE
  8
1
 10
-18.5
 20
-4.2648146311442
 11
-16.5
 21
-0.264814631144205
  0
POLYLINE
  8
1
 66
1
  0
VERTEX
  8
1
 10
-20.5
 20
-0.264814631144205
  0
VERTEX
  8
1
 10
-14.5
 20
-0.264814631144205
  0
VERTEX
  8
1
 10
-14.5
 20
-4.2648146311442
  0
VERTEX
  8
1
 10
-20.5
 20
-4.2648146311442
  0
VERTEX
  8
1
 10
-20.5
 20
-0.264814631144205
  0
SEQEND
  8
1
  0
POLYLINE
  8
1
 66
1
  0
VERTEX
  8
1
 10
20.5
 20
-2.2648146311442
  0
VERTEX
  8
1
 10
20.0833333333333
 20
-4.2648146311442
  0
VERTEX
  8
1
 10
19.25
 20
-0.264814631144205
  0
VERTEX
  8
1
 10
18.4166666666667
 20
-4.2648146311442
  0
VERTEX
  8
1
 10
17.5833333333334
 20
-0.264814631144205
  0
VERTEX
  8
1
 10
16.75
 20
-4.2648146311442
  0
VERTEX
  8
1
 10
15.9166666666667
 20
-0.264814631144205
  0
VERTEX
  8
1
 10
15.5
 20
-2.2648146311442
  0
SEQEND
  8
1
  0
LINE
  8
1
 10
-14.5
 20
-0.264814631144205
 11
-14.5
 21
-4.2648146311442
  0
POLYLINE
  8
1
 66
1
  0
VERTEX
  8
1
 10
-14.5
 20
-0.264814631144205
  0
VERTEX
  8
1
 10
-8.5
 20
-0.264814631144205
  0
VERTEX
  8
1
 10
-8.5
 20
-4.2648146311442
  0
VERTEX
  8
1
 10
-14.5
 20
-4.2648146311442
  0
VERTEX
  8
1
 10
-14.5
 20
-0.264814631144205
  0
SEQEND
  8
1
  0
LINE
  8
1
 10
-14.5
 20
-0.264814631144205
 11
-11.0358983848622
 21
-2.2648146311442
  0
LINE
  8
1
 10
-14.5
 20
-4.2648146311442
 11
-11.0358983848622
 21
-2.2648146311442
  0
POLYLINE
  8
1
 66
1
  0
VERTEX
  8
1
 10
-8.5
 20
3.7351853688558
  0
VERTEX
  8
1
 10
3.5
 20
3.7351853688558
  0
VERTEX
  8
1
 10
3.5
 20
-4.2648146311442
  0
VERTEX
  8
1
 10
-8.5
 20
-4.2648146311442
  0
VERTEX
  8
1
 10
-8.5
 20
3.7351853688558
  0
SEQEND
  8
1
  0
LINE
  8
1
 10
-6.5
 20
-4.2648146311442
 11
-6.5
 21
-2.2648146311442
  0
INSERT
  8
1
  2
LCBP1
 10
-6.5
 20
-2.2648146311442
 50
90
  0
LINE
  8
1
 10
-6.5
 20
3.7351853688558
 11
-2.5
 21
-4.2648146311442
  0
INSERT
  8
1
  2
LCA1
 10
-2.5
 20
-4.2648146311442
 50
-63.434948822922
  0
INSERT
  8
1
  2
LCA1R
 10
-6.5
 20
3.7351853688558
 50
-63.434948822922
  0
LINE
  8
1
 10
1.5
 20
-4.2648146311442
 11
1.5
 21
3.7351853688558
  0
INSERT
  8
1
  2
LCA1
 10
1.5
 20
3.7351853688558
 50
90
  0
INSERT
  8
1
  2
LCA1R
 10
1.5
 20
-4.2648146311442
 50
90
  0
POLYLINE
  8
1
 66
1
  0
VERTEX
  8
1
 10
3.5
 20
3.7351853688558
  0
VERTEX
  8
1
 10
15.5
 20
3.7351853688558
  0
VERTEX
  8
1
 10
15.5
 20
-4.2648146311442
  0
VERTEX
  8
1
 10
3.5
 20
-4.2648146311442
  0
VERTEX
  8
1
 10
3.5
 20
3.7351853688558
  0
SEQEND
  8
1
  0
LINE
  8
1
 10
13.5
 20
-4.2648146311442
 11
13.5
 21
-2.2648146311442
  0
INSERT
  8
1
  2
LCBP1
 10
13.5
 20
-2.2648146311442
 50
90
  0
LINE
  8
1
 10
5.5
 20
-4.2648146311442
 11
5.5
 21
3.7351853688558
  0
INSERT
  8
1
  2
LCA1
 10
5.5
 20
3.7351853688558
 50
90
  0
INSERT
  8
1
  2
LCA1R
 10
5.5
 20
-4.2648146311442
 50
90
  0
LINE
  8
1
 10
9.5
 20
-4.2648146311442
 11
13.5
 21
3.7351853688558
  0
INSERT
  8
1
  2
LCA1
 10
13.5
 20
3.7351853688558
 50
63.434948822922
  0
INSERT
  8
1
  2
LCA1R
 10
9.5
 20
-4.2648146311442
 50
63.434948822922
  0
CIRCLE
  8
CONNECTIONS
 10
-10.5
 20
-8.2648146311442
 40
0
  0
CIRCLE
  8
CONNECTIONS
 10
-14.5
 20
-8.2648146311442
 40
0
  0
CIRCLE
  8
CONNECTIONS
 10
5.5
 20
7.7351853688558
 40
0
  0
CIRCLE
  8
CONNECTIONS
 10
13.5
 20
7.7351853688558
 40
0
  0
CIRCLE
  8
CONNECTIONS
 10
13.5
 20
-8.2648146311442
 40
0
  0
CIRCLE
  8
CONNECTIONS
 10
9.5
 20
-8.2648146311442
 40
0
  0
CIRCLE
  8
CONNECTIONS
 10
5.5
 20
-8.2648146311442
 40
0
  0
CIRCLE
  8
CONNECTIONS
 10
-20.5152482350667
 20
-2.26481463114421
 40
0
  0
ENDBLK
  8
0
  0
ENDSEC
  0
SECTION
  2
ENTITIES
  0
INSERT
  8
1
  2
B159736_00991025
 10
20.5
 20
8.2648146311442
  0
ENDSEC
  0
EOF
